PrimaNota.ru - самый крупный в мире бесплатный архив песенных текстов, аккордов, табулатур и нот


Stoned Jesus - Electric Mistress - таба, видео

Регистрация Запомнить меня
Войти через:  Facebook Google Twitter Vk Yandex Mail.ru

Stoned Jesus - Electric Mistress - таба, видео

Печатать
Просмотров: 41
-------------------------------------------------------------------------------
                        Electric Mistress - Stoned Jesus
-------------------------------------------------------------------------------
I recently found this band while searching for something new to wrap my ears around, and when I 
decided to learn some, I was shocked to see so few tabs, so I decided to try and write one. 
This is my first tab ever on this site, so please, positive feedback would be nice, but any 
constructive criticism is welcome, too. If you feel any of this is wrong, email me your thoughts
and I'll test them out and see if it can be improved. 

I don't own any of the rights to this song, I just like to play.

Enjoy

Tabbed by: Jordan Frater
E-mail: jodan.plz@gmail.com

Tuning: C G C F A D (Drop C)

Intro:                                                                            
D|--------------------------------------------------------------------------|\
A|--------------------------------------------------------------------------| \
F|--------------------------------------------------------------------------|  \__ X2
C|--------------------------------------------------------------------------|  /
G|-----3h4h5~------------------------------3h4h5~---------------------------| /
C|-0-0--------------0-0-5h6h7~---------0-0---------------0-0-6p5p3~---------|/
   * *              * *                * *               * *
Main Riff:
D|---------------------------------------------------------------------------|\
A|---------------------------------------------------------------------------| \
F|---------------------------------------------------------------------------|  \__ X4
C|---------------------------------------------------------------------------|  /
G|-----3h4h5------------------------------3h4h5------------------------------| /
C|-0-0--------0-0-5h6h7--0-0-6p5p3~---0-0--------0-0-5h6h7--0-0-6p5p3~-------|/
   * *        * *        * *          * *        * *        * *

Verse:
D|---------------------------------------------------------------------------|\
A|---------------------------------------------------------------------------| \
F|-7-7--7-7--7-7--7-7--7-7--7-7-10~-10~--------------------------------------|  \__ X4
C|-7-7--7-7--7-7--7-7--7-7--7-7-10~-10~--------------------------------------|  /
G|-5-5--5-5--5-5--5-5--5-5--5-5--8~--8~------3h4h5---------------------------| /
C|---------------------------------------0-0--------0-0-5h6h7--0-0-6p5p3~----|/
   * *  * *  * *  * *  * *  * *          * *        * *        * *

Chorus:
D|---------------------------------------------------------------------------|\
A|---------------------------------------------------------------------------| \
F|-5~---------------------5h6h7----------------------------------------------|  \__ X3 
C|-5~-----5-5-6-7--3-----------------5h6h7------6p5p3------------------------|  /
G|-3~-----5-5-6-7--3---------------------------------------------------------| /
C|--------5-5-6-7--3--0-0--------0-0--------0-0------------------------------|/
                      * *        * *        * *                             /
   ____________<________________________followed by__________<_____________/
  /                               
D|---------------------------------------------------------------------------|
A|---------------------------------------------------------------------------|
F|-5~------------------------------------------------------------------------|
C|-5~-----5-5-6-7--3----5-5-6-7--3----5-5-6-7--3-----------------------------|
G|-3~-----5-5-6-7--3----5-5-6-7--3----5-5-6-7--3-----------------------------|
C|--------5-5-6-7--3----5-5-6-7--3----5-5-6-7--3-----------------------------|

Main Riff:
D|---------------------------------------------------------------------------|\
A|---------------------------------------------------------------------------| \
F|---------------------------------------------------------------------------|  \__ X2
C|---------------------------------------------------------------------------|  /
G|-----3h4h5------------------------------3h4h5------------------------------| /
C|-0-0--------0-0-5h6h7--0-0-6p5p3~---0-0--------0-0-5h6h7--0-0-6p5p3~-------|/
   * *        * *        * *          * *        * *        * *

Verse:
D|---------------------------------------------------------------------------|\
A|---------------------------------------------------------------------------| \
F|-7-7--7-7--7-7--7-7--7-7--7-7-10~-10~--------------------------------------|  \__ X4
C|-7-7--7-7--7-7--7-7--7-7--7-7-10~-10~--------------------------------------|  /
G|-5-5--5-5--5-5--5-5--5-5--5-5--8~--8~------3h4h5---------------------------| /
C|---------------------------------------0-0--------0-0-5h6h7--0-0-6p5p3~----|/
   * *  * *  * *  * *  * *  * *          * *        * *        * *

Chorus:
D|---------------------------------------------------------------------------|\
A|---------------------------------------------------------------------------| \
F|-5~------------------------------------------------------------------------|  \__ X3
C|-5~-----5-5-6-7--3---------------------------------------------------------|  /
G|-3~-----5-5-6-7--3------3h4h5----------------------------------------------| /
C|--------5-5-6-7--3--0-0--------0-0-5h6h7--0-0-6p5p3------------------------|/
                      * *        * *        * *

D|---------------------------------------------------------------------------|
A|---------------------------------------------------------------------------|
F|-5~------------------------------------------------------------------------|
C|-5~-----5-5-6-7--3----5-5-6-7--3----5-5-6-7--3-----------------------------|
G|-3~-----5-5-6-7--3----5-5-6-7--3----5-5-6-7--3-----------------------------|
C|--------5-5-6-7--3----5-5-6-7--3----5-5-6-7--3-----------------------------|

Solo:
D|---------------------------------------------------------------------------|
A|---------------------------------------------------------------------------|
F|---12bu14-12bu14-12bu14-12bu14-12bu14-12bu14bd12-10~--10-------------------|
C|---------------------------------------------------------------------------|
G|---------------------------------------------------------------------------|
C|---------------------------------------------------------------------------|

D|----10-8---------8-10-8---------8-10-8---------8----13---13h15-15bu17------|
A|---------10-8-10--------10-8-10--------10-8-10-----------------------------|
F|---------------------------------------------------------------------------|
C|---------------------------------------------------------------------------|
G|---------------------------------------------------------------------------|
C|---------------------------------------------------------------------------|

D|-15bu17-13-10-13-10-13-15-15bu17-15bu17-13-10-13---------------------------|
A|-------------------------------------------------13p12p10h13p12p10h13p12p10|
F|---------------------------------------------------------------------------|
C|---------------------------------------------------------------------------|
G|---------------------------------------------------------------------------|
C|---------------------------------------------------------------------------|

D|-------------------------------------------------------------12p10--13p10--|
A|h13p12p10h13p12p10h13p12p10h13p12p10------------------------------10-----10|
F|-------------------------------------12bu14bd12-10h12p10~------------------|
C|---------------------------------------------------------------------------|
G|---------------------------------------------------------------------------|
C|---------------------------------------------------------------------------|

D|15p10--13p10--12p10--13p10--15p10--13p10-13p10------10h13p10-------10h13p10|
A|-----10-----10-----10-----10-----10-----------10p9h10--------10p9h10-------|
F|---------------------------------------------------------------------------|
C|---------------------------------------------------------------------------|
G|---------------------------------------------------------------------------|
C|---------------------------------------------------------------------------|

D|------10h13p10---------13----------------------------------------------------|
A|10p9h10---------10p9h10----8bu10-10bd8-6-8-6---6-8bu10-8-6---6-------------|
F|--------------13------------------------7-------------7----7-5-------------|
C|-----------------------------------------------------------------7-6-5-3-5v|
G|---------------------------------------------------------------------------|
C|---------------------------------------------------------------------------|

D|---------------------------------------------------------------------------|
A|---------------------------------------------------------------------------|
F|---------------------------------------------------------------------------|
C|--3------------------------------------------------------------------------|
G|--------3h5-5-5p3p0-----3h5-5-5p3------3h5-5-5p3p0--3-3-5-3-----3h5-5-5p3p0|
C|----0-0-------------0-0----------0-0----------------3-3-5-3-0-0------------|
      * *             * *          * *                        * *

D|---------------------------------------------------------------------------|
A|---------------------------------------------------------------------------|
F|---------------------------------------------------------------------------|
C|---------------------------------------------------------------------------|
G|-----3h5-5-5p3-----3h5-5-5p3p0-3-3-5-3----3h5-5-5p3p0-------3h5-5-5p3------|
C|-0-0-----------0-0-------------3-3-5-3-0-0------------0-0-------------0-0--|
   * *           * *                     * *            * *             * *

D|---------------------------------------------------------------------------|
A|---------------------------------------------------------------------------|
F|---------------------------------------------------------------------------|
C|---------------------------------------------------------------------------|
G|3h5-5-5p3p0-3-3-5-3-----3h5-5-5p3p0-----3h5-5-5p3-----3h5-5-5p3p0-3-3-5-3--|
C|------------3-3-5-3-0-0-------------0-0-----------0-0-------------3-3-5-3--|
                      * *             * *           * *

D|---------------------------------------------------------------------------|
A|---------------------------------------------------------------------------|
F|---------------------------------------------------------------------------|
C|---------------------------------------------------------------------------|
G|-5-5p3p0-3-3---------------------5-5p3p0-3-3---------------------5-5p3p0-3-|
C|-------------7-7p5p3-5-5-5^5-3-0-------------7-7p5p3-5-5-5^5-3-0-----------|

D|---------------------------------------------------------------------------|
A|---------------------------------------------------------------------------|
F|-------------------------------------------------------7-7p5---5-5---------|
C|-------------------------------------------------------------7-----7-7p5p3-|
G|3---------------------5-5p3p0-3-3------------------------------------------|
C|--7-7p5p3-5-5-5^5-3-0-------------7-7p5p3-5-5-5^5-3-0----------------------|

D|---------------------------------------------------------------------------|
A|---------------------------------------------------------------------------|
F|-------------7-7p5---5-5---------------------7-7p5---5-5-------------------|
C|-5-5-5^5-3---------7-----7-7p5p3-5-5-5^5-3---------7-----7-7p5p3-5-5-5^5-3-|
G|-----------5-------------------------------5-------------------------------5
C|---------------------------------------------------------------------------|

D|---------------------------------------------------------------------------|
A|---------------------------------15-15p13----13-13-------------------------|
F|-7-7p5---5-5------------------------------14-------14-14p12p10-12-12-12^12-|
C|-------7-----7-7p5p3-5-5-5^5-3---------------------------------------------|
G|-------------------------------5-------------------------------------------|
C|---------------------------------------------------------------------------|

D|---------------------------------------------------------------------------|
A|-------15-15p13----13-13-------------------------------15-15p13----13-13---|
F|-10-------------14-------14-14p12p10-12-12-12^12-10-------------14---------|
C|----12----------------------------------------------12---------------------|
G|---------------------------------------------------------------------------|
C|---------------------------------------------------------------------------|

D|---------------------------------------------------------------------------|
A|-------------------------------15-15p13----13-13---------------------------|
F|-14-14p12p10-12-12-12^12-10-------------14-------14-14p12p10-12-12-12^12-10|
C|----------------------------12---------------------------------------------|
G|---------------------------------------------------------------------------|
C|---------------------------------------------------------------------------|

D|---------------------------------------------------------------------------|
A|---------------------------------------------------------------------------|
F|---------------------------------------------------------------------------|
C|12-------------------------------------------------------------------------|
G|-------3h5-5-5p3p0-----3h5-5-5p3-----3h5-5-5p3p0-3-3-5-3-----3h5-5-5p3p0---|
C|---0-0-------------0-0-----------0-0-------------3-3-5-3-0-0---------------|
     * *             * *           * *                     * *

D|---------------------------------------------------------------------------|
A|---------------------------------------------------------------------------|
F|---------------------------------------------------------------------------|
C|---------------------------------------------------------------------------|
G|-----3h5-5-5p3-----3h5-5-5p3p0-3-3-5-3-----3h5-5-5p3p0-----3h5-5-5p3-------|
C|-0-0-----------0-0-------------3-3-5-3-0-0-------------0-0-----------0-0---|
   * *           * *                     * *             * *           * *

D|---------------------------------------------------------------------------|
A|---------------------------------------------------------------------------|
F|---------------------------------------------------------------------------|
C|---------------------------------------------------------------------------|
G|-3h5-5-5p3p0-3-3-5-3-----3h5-5-5p3p0-----3h5-5-5p3-----------------3-3-5-3-|
C|-------------3-3-5-3-0-0-------------0-0-----------0-0-3h5-5-5p3p0-3-3-5-3-|
                       * *             * *           * *

D|---------------------------------------------------------------------------|
A|---------------------------------------------------------------------------|
F|-----5h7-7-7p5-------5h7-7-7p5-----5h7-7-7p5---------------5h7-7-7p5-------|
C|-----5h7-7-7p5-------5h7-7-7p5-----5h7-7-7p5---------------5h7-7-7p5-------|
G|---------------7-----------------------------7-3-3-5-3---------------7-----|
C|-0-0-------------0-0-----------0-0-------------3-3-5-3-0-0-------------0-0-|
   * *             * *           * *                     * *             * *

D|---------------------------------------------------------------------------|
A|---------------------------------------------------------------------------|
F|-5h7-7-7p5-----5h7-7-7p5-----------7-5-------5-7-5-------5-7-5-------5-7-5-|
C|-5h7-7-7p5-----5h7-7-7p5---------------7-5-7-------7-5-7-------7-5-7-------|
G|-------------------------7-3-3-5-3-----------------------------------------|
C|-----------0-0-------------3-3-5-3-----------------------------------------|
             * *

D|---------------------------------------------------------------------------|
A|---------------------------------------------------------------------------|
F|-------5-7-(End Solo)------------------------------------------------------|
C|-7-5-7---------------------------------------------------------------------|
G|---------------------------------------------------------------------------|
C|---------------------------------------------------------------------------|





************************************

| /   slide up
| \   slide down
| ^   quick bend
| h   hammer-on
| p   pull-off
| ~   Hold note
| +   harmonic
| v   vibrato
| *   Mute note
| bu  Bend up
| bd  Bend down
| pb  Pre-bend
| br  Bend release
| pbr Pre-bend release
| brb Bend release bend

************************************
Добавлено: 09.06.2016
Другие материалы по этой песне:
  • Аккорды и текст

Страница создана 09.06.2016
http://primanota.ru/stoned-jesus/electric-mistress-chords.htm
Привет, Гость.
Предлагаем пройти революционный курс по гитаре.
Подарок от PrimaNota.Ru, забирай!