PrimaNota.ru - самый крупный в мире бесплатный архив песенных текстов, аккордов, табулатур и нот


Stoned Jesus - Bright Like The Morning - аккорды и текст, видео

Регистрация Запомнить меня
Войти через:  Facebook Google Twitter Vk Yandex Mail.ru

Stoned Jesus - Bright Like The Morning - аккорды и текст, видео

Печатать
Просмотров: 92
Bright Like The Morning
Stoned Jesus
SONG:   BRIGHT LIKE THE MORNING
ARTIST: STONED JESUS
VIDEO:  ACOUSTIC VERSION - IGOR
        https://youtu.be/n4NT4QQuwbg
TAB BY: DON CZARSKI
EMAIL:  GUITARZAN7@HOTMAIL.COM

                  BRIGHT LIKE THE MORNING
                       STONED JESUS
                    (ACOUSTIC VERSION)

INTRO:
   D           Dm     E   D      D           Dm     G      D
E ----------------------------|-------------------------------|
B ----------------------------|-------------------------------|
G ----------------------------|-------------------------------|
D ----------------------------|-------------------------------|
A -3h5-5-3-5-5--5/8-8-7-7-5---|--3h5-5-3-5-5--5/8-8-8/10-10-8-|
E ----------------------------|-------------------------------|

   D           Dm     E   D      D          A       G     D
E ----------------------------|-------------------------------|
B ----------------------------|-------------------------------|
G ----------------------------|-------------------------------|
D ----------------------------|-------------------------------|
A -3h5-5-3-5-5--5/8-8-7-7-5---|--3h5-5-3-5-5------------------|
E ----------------------------|--------------3/5-5-5-3-3-3-1--|


VERSE:
 D     Dm       D
Seven Thunders Roar
 D     Dm      D
Over flooded shore
 D       Dm       G         D   A G Dm
Pilgrim have you lost your way 
 D    Dm           D
Many lands you've seen 
  D          Dm       D
Through the lens of green 
 D      Dm     G        D   A G Dm
Now hangover saves the day 
  D          Dm          D
Looks like you're still young 
  D      Dm       D
Shining like the Sun 
 D     Dm          G      D   
But inside you're almost dead 

   D       G    Dm    
E -3/5-5-5-3-3-3-1--
B ------------------
G ------------------
D ------------------
A ------------------
E ------------------

VERSE:
  D       Dm       D
Searching for yourself 
D     Dm      D
On an empty shelf 
 D     Dm      G     D
Magic potions never help, 
      A     G   Dm  D  D
They never help 


CHORUS:
  D     G        Bb     G C D
Bright Like The Morning 
 D      A              Bb   F C D
She descends from up above 
 A     G       Bb      F C D
Sweet like my yearning 
 D         A                Gm
She's the One 'cause she is Love, Love, Love 


VERSE:
D         Dm      D
 Sailing seas of gold
  D      Dm      D
Climbing up the rope 
 D          Dm       G      D   A G D
There's a chance to start again 
  D        Dm D
Things to realize 
 D     Dm     D
Hiding in disguise 
 D         Dm            D        A     G   Dm C D   Dm Am D
Pilgrim's journey never ends, it never ends 


CHORUS:
 N.C.
 (A)   (G)      Bb      F C D
Bright Like The Morning 
        Am             Bb   F C D
She descends from up above 
 A     G       Bb       F C Dm
Sweet like my yearning 
           A          Am      Bb  F C Dm
She's the One because she is Love 
 A    G        Bb      F C Dm
Cold like the Knowning 
           A                   Dm  D   F C Dm
She needs patience, she needs time 
  A     G        Bb      F C D
Bright Like The Morning 
          Am                Gm  Dm
She's the One 'cause she is my blood
Добавлено: 24.10.2015
Вам также может быть интересно:
Другие материалы по этой песне:
  • Аккорды и текст

Страница создана 24.10.2015
http://primanota.ru/stoned-jesus/bright-like-morning-chords.htm
Привет, Гость.
Предлагаем пройти революционный курс по гитаре.
Подарок от PrimaNota.Ru, забирай!