PrimaNota.ru - самый крупный в мире бесплатный архив песенных текстов, аккордов, табулатур и нот


Stoned Jesus - Black Woods - таба, видео

Регистрация Запомнить меня
Войти через:  Facebook Google Twitter Vk Yandex Mail.ru

Stoned Jesus - Black Woods - таба, видео

Печатать
Просмотров: 182
-------------------------------------------------------------------------------
                             Stoned Jesus - Black Woods
-------------------------------------------------------------------------------
Tabbed by: VakiPitsi
E-mail: konsteva@gmail.com

Tuning: Drop C (CGCFAD)

Information about the tab:

The song is really repetetive so I will tab each section separetly and I will explain 
the order in the end of the page.

Intro(palm muted)

D|---------------------------------------------------------------------------|
A|---------------------------------------------------------------------------|
F|---------------------------------------------------------------------------|
C|---------------------------------------------------------------------------|
G|---------------------------------------------------------------------------|
C|-6-6-6-6--4--6-6-6-6--4--6-6-6-6--4--6-6--4--6--0--------------------------|

Riff 1

D|---------------------------------------------------------------------------|
A|---------------------------------------------------------------------------|
F|---------------------------------------------------------------------------|
C|-6-6-6-6--4--6-6-6-6--4--6-6-6-6--4--6-6--4--6--0--------------------------|
G|-6-6-6-6--4--6-6-6-6--4--6-6-6-6--4--6-6--4--6--0--------------------------|
C|-6-6-6-6--4--6-6-6-6--4--6-6-6-6--4--6-6--4--6--0--------------------------|

Riff 2

D|---------------------------------------------------------------------------|
A|---------------------------------------------------------------------------|
F|---4--6p4----6/8--6/8--6p4-------------------------------------------------|
C|-6--------6------------------6-6-6-6--4--6-6--4--6--0----------------------|
G|-----------------------------6-6-6-6--4--6-6--4--6--0----------------------|
C|-----------------------------6-6-6-6--4--6-6--4--6--0----------------------|

Riff 3

D|---------------------------------------------------------------------------|
A|---------------------------------------------------------------------------|
F|---------------------------------------------------------------------------|
C|-11--9--6-6-6-6--4--6-6--4--6--0-------------------------------------------|
G|-11--9--6-6-6-6--4--6-6--4--6--0-------------------------------------------|
C|-11--9--6-6-6-6--4--6-6--4--6--0-------------------------------------------|

Riff 4

D|---------------------------------------------------------------------------|
A|---------------------------------------------------------------------------|
F|----16-18p16----18/20-18/20-18p16------------------------------------------|
C|-18----------18-------------------18---6-6-6-6--4--6-6--4--6--0------------|
G|---------------------------------------6-6-6-6--4--6-6--4--6--0------------|
C|---------------------------------------6-6-6-6--4--6-6--4--6--0------------|

Riff 5

D|---------------------------------------------------------------------------|
A|---------------------------------------------------------------------------|
F|---------------------------------------------------------------------------|
C|-2-2-2-2-2-2-2-2-//--------------------------------------------------------|
G|-2-2-2-2-2-2-2-2-//--------------------------------------------------------|
C|-2-2-2-2-2-2-2-2-//--------------------------------------------------------|

Solo (I couldn't figure out the whole solo but this will get you an idea, sorry)

D|---------------------------------------------------------------------------------------------------------
A|-------------------------------------------19-16----16---------------------------------------------------
F|-18brp16-------16-18bp16----16-------16-18-------18----18-16-----18br--16-18--------16-18--18h19p18p16---
C|---------16-18-----------18----16-18-------------------------18--16br--------16-18---------------------18
G|---------------------------------------------------------------------------------------------------------
C|---------------------------------------------------------------------------------------------------------

D|---------------------------------------------------------------------------------------------------------
A|---------------------------------------------------------------------------------------------------------
F|-16---------16-18-19-1816----16-18-19-18-16----16-18-19-18-16----18-16----16-------------------------18b-
C|----16/18-----------------18----------------18----------------18-------18----18-16--18-16-14-------------
G|---------------------------------------------------------------------------------------------14~-16~-----
C|---------------------------------------------------------------------------------------------------------

D|---------------------------------------------------------------------------------------------------------
A|-----------19-16------------------------------16-19-16-19-19/21-16-19-16-19-19/21--16-19-16-19-19/21--19-
F|18b--18brp-------18--16--------16h18p16------------------------------------------------------------------
C|------------------------18-16-----------18--16-----------------------------------------------------------
G|---------------------------------------------------------------------------------------------------------
C|---------------------------------------------------------------------------------------------------------

D|---19-21brp19----------------------------------------------|---------|16--19br-19h21p19----19------------
A|21------------21-------------------------------------------|---------|------------------21----21-19-21-19
F|-----------------18b-18b-18b-18b-18b-18b-18b-18br--16h18p16|-UNKNOWN-|-----------------------------------
C|-----------------------------------------------------------|---------|-----------------------------------
G|-----------------------------------------------------------|---------|-----------------------------------
C|-----------------------------------------------------------|---------|-----------------------------------

D|------------------------------------------------------------------------------------------------|-------|
A|------------------------------------------------------------------------------------------------|-------|
F|-21-18-----16-18-/19--18-16--------------4-6-7-6-4----4-6-7-6-4----4-6-7-6-4-//11---------------|UNKNOWN|
C|-------/18------------------18--------/6-----------/6-----------/6------------------------------|-------|
G|------------------------------------------------------------------------------------------------|-------|
C|------------------------------------------------------------------------------------------------|-------|

Riff 6

D|---------------------------------------------------------------------------------------|
A|---------------------------------------------------------------------------------------|
F|---------------------------------------------------------------------------------------|
C|---------7-9-7-------7----------7-9-7---7---------7-9-7--------7-----------7-9-7-------|
G|-----7-9-------9-7-9--------7-9-------9-------7-9-------9-7-9---------7-9---------9-5--|
C|-9-9--------------------9-9---------------9-9---------------------9-9------------------|

Riff 7

D|----------------------------------------------|
A|----------------------------------------------|
F|----------------------------------------------|
C|-9-9-9-9-9-9-9-9--12--9-9-9-9-9-9-9-9--7------|
G|-9-9-9-9-9-9-9-9--12--9-9-9-9-9-9-9-9--7------|
C|-9-9-9-9-9-9-9-9--12--9-9-9-9-9-9-9-9--7------|

Riff 8

D|-------------------------------------------------------------------------|
A|-------------------------------------------------------------------------|
F|-------------------------------------------------------------------------|
C|-9--9-9-9-9-9-9-9--12-12-12-12-12-12---9--9-9-9-9-9-9-9-9--7-7-7-7-7-7---|
G|-9--9-9-9-9-9-9-9--12-12-12-12-12-12---9--9-9-9-9-9-9-9-9--7-7-7-7-7-7---|
C|-9--9-9-9-9-9-9-9--12-12-12-12-12-12---9--9-9-9-9-9-9-9-9--7-7-7-7-7-7---|

Riff 9

D|----------------------------------|
A|----------------------------------|
F|----------------------------------|
C|-9--9-9-9-9-9-9-9--12-12-12--9----|
G|-9--9-9-9-9-9-9-9--12-12-12--9----|
C|-9--9-9-9-9-9-9-9--12-12-12--9----|

Riff order:

Intro 
Riff 1
Riff 2
Riff 3
Riff 5
Riff 1
Riff 2/Riff 4
Riff 3
Riff 5
Riff 1
SOLO
Intro
Riff 3
Riff 5
Riff 1
Riff 6
Riff 7
Riff 6
Riff 7
Riff 6
Riff 8
Riff 9


************************************

| /   slide up
| \   slide down
| h   hammer-on
| p   pull-off
| ~   vibrato
| +   harmonic
| x   Mute note
| b   Bend
| pb  Pre-bend
| br  Bend release
| pbr Pre-bend release
| brb Bend release bend

************************************
Добавлено: 02.11.2014
Другие материалы по этой песне:
  • Аккорды и текст

Страница создана 02.11.2014
http://primanota.ru/stoned-jesus/black-woods-chords.htm
Привет, Гость.
Предлагаем пройти революционный курс по гитаре.
Подарок от PrimaNota.Ru, забирай!