PrimaNota.ru - самый крупный в мире бесплатный архив песенных текстов, аккордов, табулатур и нот


Stonebringer - Pan - таба, видео

Регистрация Запомнить меня
Войти через:  Facebook Google Twitter Vk Yandex Mail.ru

Stonebringer - Pan - таба, видео

Печатать
Просмотров: 105
Уроки эстрадного вокала в Санкт-Петербурге
Stonebringer - Pan

stonebringer.bandcamp.com/

Tuning: Drop B

intro-riff

---------------------------------------------------------------|
---------------------------------------------------------------|
--------------------------0------------------------------------|
----------------------0-2---3~-------------------0-2-3-5-3-2-0-|
------5--5--0-2-3---3----------------5--5--0-2-3---------------|
-0--0---------------------------0--0---------------------------| x4


verse

---------------------------------------------------------------|
---------------------------------------------------------------|
---------------------------------------5-------------5---------|
------10---------------10------------5-----5-------5-----5-----|
----10-----10--------10-----10-----------------------------0---|
-8------------8--11------------11-5----------5--5--------------| x2


----------------------------------------------------------------------------------------------|
----------------------------------------------------------------------------------------------|
----------------------------------------------------------------------------------------------|
------10-------------10-------------10------------10--------------10-------------10-----------|
----10-----10------10-----10------10----10------10-----10-------10-----10------10----10----0/-|
-8------------8-7------------7-0-----------0-10-----------10-8-----------8-11--------- 11--0/-|


riff x2

verse

chorus

---------------------------------------------------------|
---------------------------------------------------------|
---------------------------------------------------------|
-----9---7h10-----9---7h10-----9---7h10-----9---7h10-----|
---------------------------------------------------------|
-0-0---0------0-0---0------0-0---0------0-0---0----------|


--------------------------------------------------/-------|
--------------------------------------------------/-------|
--------------------------------------------------/-------|
---------2h6---------2h6---------2h6---------2h6--/-0~----|
-----5-4---------5-4---------5-4---------5-4------/-0~----|
-4-4---------4-4---------4-4---------4-4----------/-0~----| x2

wah lick

--------------------------------------------------------------------15--15---|
---------------------------------13----------------------------17-18--18-----|
------------------------------12----14~--------------------12----------------|
-0--0-12--12-10-12-14---14h15------------0--0-15--15-14h15-------------------|
-----------------------------------------------------------------------------|
-----------------------------------------------------------------------------|

riff x2

verse

chorus x2

bridge lead


------------------------------------------------------------------------------|
-----------------------------------------------------xxxxxxxxxxxxxxxx---------|
---------------------------------------3--------3p0--xxxxxxxxxxxxxxxx-(16-----| times)
-------4--4-0h2-4h5-4p2h4p2---------5----5-----------xxxxxxxxxxxxxxxx---------|with
----------------------------h5p4-3---------3-1-------xxxxxxxxxxxxxxxx----wah--|
-0h4-4------------------------------------------------------------------------|


------------------------------------|
------------------------------------|
------------------------------------|
-------5----5--------3----3---------|
------------------------------------|
-0h3-3----3----0h1-1----1-----------|


------------------------------------------------------------------------------|
-----------------------------------------------------xxxxxxxxxxxxxxxx---------|
---------------------------------------3--------3p0--xxxxxxxxxxxxxxxx---------|(16 times
-------4--4-0h2-4h5-4p2h4p2---------5----5-----------xxxxxxxxxxxxxxxx---with--|
----------------------------h5p4-3---------3-1-------xxxxxxxxxxxxxxxx---wah)--|
-0h4-4------------------------------------------------------------------------|


------------------------------------|
------------------------------------|
------------------------------------|
---------------------5--------------|
-------10---8-------------4---------|
-0h6-6----6----4h5-5----5-----------|


then alt chorus

---------------------------------------------------------|
---------------------------------------------------------|
---------------------------------------------------------|
-----9---7h10-----9---7h10-----9---7h10-----9---7h10-----|
---------------------------------------------------------|
-0-0---0------0-0---0------0-0---0------0-0---0----------|

----------------------------------------------------------|
----------------------------------------------------------|
----------------------------------------------------------|
---------2h6---------2h6---------2h6---------2h6----------|
-----5-4---------5-4---------5-4---------5-4--------------|
-4-4---------4-4---------4-4---------4-4------------------|


-----------------------------------------------------------------------------------------------------|
-----------------------------------------------------------------------------------------------------|
----------------------------------------------------------4-----------4----------4-----------4-------|
-----9---11p9-----9---11p9-----9---11p9-----9---11p9----4---4---4---4---4--4---4---4---4-4-4---4-4-4-|
---7------------7------------7------------7-----------4-------4---5-------5--7-------7---------------|
-7-----7------7-----7------7-----7------7-----7------------------------------------------------------|

bridge until first half on the second repeat

break (with wah)

---------------------------------------|
---------------------------------------|
---------------------------------------|
---------------------------------------|
-----x-x--3p5-x--8-x-x-5---------------|
-1p0-x-x------x----x-x----1-1-1-1------| x10


interlude


----------------------------------------------------------------------------------|
----------------------------------------------------------------------------------|
----------------------------------------------------------------------------------|
-11---9-7-9~--7-9-7-9~--7-9---5---9-7-9~---7-9-7-9~--7-9-------0-3-0--------0--0~-|
-7----7-7-7~--7-7-7-7~--7-7---5---5-5-5~---5-5-5-5~--5-5-------------3-----3-3----|
-7----7-7-7~--7-7-7-7~--7-7---5---5-5-5~---5-5-5-5~--5-5---0-3---------0-1--------|


----------------/-(clean)----------------------------------------------------------------|
----------------/--------------------------------------------------------------6-8-8s10~-|
----------------/----------------------------------------------------5-5s7~--7-----------|
-0--0--3--2--0--/---7s8~---8--8--8s7-7s3-3~-----3--5b7r5--3-5~---5-8---------------------|
-0--0-----------/-----------------------------5------------------------------------------|
-0--0-----------/------------------------------------------------------------------------|


---------------------------------------------------------------------------------------------|
-10b11-8--------------------13--13-13-----13--15--------13--13--13--13-----------------------|
---------10------10-12-14-15--15-----14h15--15--15p14-15--15--15--15--14~---s12-14-11-11h12~-|
--------------12-----------------------------------------------------------------------------|
---------------------------------------------------------------------------------------------|
---------------------------------------------------------------------------------------------|

----------13--------12-----------10--------12-------13-------------------|-(distortion)
-----11-----11--------11-------10--10---10---10--10---10--10-/-----------|
-s12---12-----12--------12---10------10--------10-------10---/-----------|
-------------------------------------------------------------/-----------|
-------------------------------------------------------------/-----------|
-------------------------------------------------------------/-0-3-5s7---|


--------------------------------------------------------------------|
--------------------------------------------------------------------|
--------------------------------------------------------------------|
-5-5-5-5-5-5-5-5-5-5-5-5-5-5-5-5-3-3-3-3-3-3-3-3-3-3-3-3-3-3-3-3----|
-5-5-5-5-5-5-5-5-5-5-5-5-5-5-5-5-3-3-3-3-3-3-3-3-3-3-3-3-3-3-3-3----|
-5-5-5-5-5-5-5-5-5-5-5-5-5-5-5-5-3-3-3-3-3-3-3-3-3-3-3-3-3-3-3-3----|


--------------------------------------------------------------------|
--------------------------------------------------------------------|
--------------------------------------------------------------------|
-1-1-1-1-1-1-1-1-1-1-1-1-1-1-1-1-3-3-3-3-3-3-3-3-0-0-0-0-1-1-1-1----|
-1-1-1-1-1-1-1-1-1-1-1-1-1-1-1-1-3-3-3-3-3-3-3-3-3-3-3-3-3-3-3-3----|
-1-1-1-1-1-1-1-1-1-1-1-1-1-1-1-1-3-3-3-3-3-3-3-3-3-3-3-3-3-3-3-3----|


interlude part 2


----------------------------------------------------------|
----------------------------------------------------------|
--------0-------------0------------0------------0---------|
----0h1--h1-0h1----3-----3------3-----3-----0h1--h1-0-----|
-3--------------1------------------------3------------1---|
-----------------------------3----------------------------|


----------------------------------------------------------|
----------------------------------------------------------|
--------0-------------0------------0------------0---------|
----0h1--h1-0h1----3-----3------3-----3------2------------|
-3--------------1------------2------------3---------------|
----------------------------------------------------------|


outro


-------------------------------------------------------------------------------------------------|
-------------------------------------------------------------------------------------------------|
-(32ths)-----------------------------------------------------------------------------------------|
-------------------------------------------------------------------------0-6p0h6p0---------------|
-------------------------------------------------------------------------------------------------|
-333333333333333333--666666--999999999999-11111111111--0--0--0-x-x-x-x-x----------0--0-0-0-x-x-x-| x2


---------------------------------------------------|
---------------------------------------------------|
---------------------------------------------------|
-------------------0-6p0h6p0-----------------------|
---------------------------------------------------|
-0--0--0-x-x-x-x-x-----------0--0-x-x-x-x-0-0-0-0--| x2
Добавлено: 07.11.2015
Другие материалы по этой песне:
  • Аккорды и текст

Страница создана 07.11.2015
http://primanota.ru/stonebringer/pan-chords.htm
Привет, Гость.
Предлагаем пройти революционный курс по гитаре.
Подарок от PrimaNota.Ru, забирай!