PrimaNota.ru - самый крупный в мире бесплатный архив песенных текстов, аккордов, табулатур и нот


Stone - Stone Cold Soul - таба, видео

Регистрация Запомнить меня
Войти через:  Facebook Google Twitter Vk Yandex Mail.ru

Stone - Stone Cold Soul - таба, видео

Печатать
Просмотров: 162
Уроки эстрадного вокала в Санкт-Петербурге
Авторы музыки: Janne Joutsenniemi
Авторы текста: Janne Joutsenniemi
-------------------------------------------------------------------------------
                             STONE COLD SOUL - STONE
-------------------------------------------------------------------------------
Tabbed by: Satanblaster

 Opening track for the album "Colours"
 THRASH!
Tuning: Eb Standard

 Intro
eb|----------------------------------------------------|
Bb|----------------------------------------------------|
Gb|----------------------------------------------------|
Db|---9-8---7-5--------9-8--7-6------------------------|
Ab|-------9-----7-8-------9-----8----------------------|
Eb|-0----------------0---------------------------------|

eb|----------------------------------------------------|
Bb|----------------------------------------------------|
Gb|-----------------------------10---------------------|
Db|----------------------------------------------------|
Ab|-2----------------2----------8----------------------|
Eb|-0-------------1--0---------------------------------|

Doubled part
eb|---------------------------------------------------|
Bb|---------------------------------------------------|
Gb|---------------------------------------------------|
Db|---9-8---7-5-------9-8--7-6------------------------|
Ab|-------9-----7-8------9-----8----------------------|
Eb|-0---------------0---------------------------------|

eb|---------------------------------------------------|
Bb|---------------------------------------------------|
Gb|---------------------------------------------------|
Db|---5-4---2-0-------5-4--2-0-3----------------------|
Ab|-------4-----2-0------4----------------------------|
Eb|-0---------------0---------------------------------|

 Talking part
eb|----------------------0----------------------------|
Bb|----------------------0----------------------------|
Gb|---------------------------------------------------|
Db|-2----------------9--------------------------------|
Ab|-2----------------7------------------2-------------|
Eb|-0----------------0------------------0-------------|

Verse
eb|---------------------------------------------------|
Bb|---------------------------------------------------|
Gb|---------------------------------------------------|
Db|-----4-3-------------------2-----------------------|
Ab|-----2-1------7-5-----2-5--2-----------------------|
Eb|-0-0-----0-0--5-3-3-6------0-----------------------|


eb|---------------------------------------------------|
Bb|---------------------------------------------------|
Gb|---------------------------------------------------|
Db|-----4-3-------------------------------------------|
Ab|-----2-1------7-5------2-5-------------------------|
Eb|-0-0-----0-0--5-3--3-6-----0-0-0-0-0-0-0-0-0-0-0-0-|

Pre-chorus
eb|--------------------------------------------------------------|
Bb|--------------------------------------------------------------|
Gb|------7------------------7------------------------------------|
Db|-5----7----------2-------7------------------------------------|
Ab|-5--7-5----------2--5-5--5------------------------------------|
Eb|-3--------2-3-2--0--------------------------------------------|


eb|------------------------------------------------------------------------|
Bb|------------------------------------------------------------------------|
Gb|------------------------------------------------------------4-7---------|
Db|--------------------------------------------------------3-6-------------|
Ab|--------6---3-----------------------------6--3------2-5-----------------|
Eb|-0-0--0-4-1-1--1-3-4-1-3-4-1-3-4--0-0--0--4--1--1-1---------------------|

eb|------------------------------------------------------------------------|
Bb|------------------------------------------------------------------------|
Gb|------------------------------------------------------------------------|
Db|--------------------------------------------------------3-6~------------|
Ab|--------6---3-----------------------------6--3------2-5-----------------|
Eb|-0-0--0-4-1-1--1-3-4-1-3-4-1-3-4--0-0--0--4--1--1-1---------------------|

Chorus
eb|-----------------------------------------------------------------------|
Bb|-----------------------------------------------------------------------|
Gb|-----------------------------------------------------------------------|
Db|--------------------7-6-9-------------9-8----7-6-----------------------|
Ab|--------7-8-------------------8-7--10-----9------7-8-------------------|
Eb|-0-0--0-----0-0-0-0-------0-0------------------------------------------|

eb|-----------------------------------------------------------------------|
Bb|-----------------------------------------------------------------------|
Gb|-----------------------------------------------------------------------|
Db|--------------------7-6-9-------------9-8----7-6-----------------------|
Ab|--------7-8-------------------8-7--10-----9------8~--------------------|
Eb|-0-0--0-----0-0-0-0-------0-0------------------------------------------|

   ”little children....”
eb|-----------------------------------------------------------------------|
Bb|-----------------------------------------------------------------------|
Gb|--2~---------------------2~----4~---5~---8~----------------------------|
Db|--2~---------------------2~----4~---5~---8~----------------------------|
Ab|-----------------------------------------------------------------------|
Eb|-----------------------------------------------------------------------|
Gtr.2
eb|-----------------------------------------------------------------------|
Bb|-----------------------------------------------------------------------|
Gb|-2---------------------------------------------------------------------|
Db|-2---------------------------------------------------------------------|
Ab|-0-0-0-0-0-0-0-0-0-0-0-0-0-0-0-0-0-0-0-0-0-0-0-0-0-0-0-0-0-0-0-0-0-0-0-|
Eb|-----------------------------------------------------------------------|


eb|------------------------------0-----(0)---(0)--------------0------------|
Bb|--------------------------0-----0---(0)---(0)----------0-----0----------|
Gb|-----------------------3----3------------------------3---3--------------|
Db|-2-------3-------2-----3----------2-----3-----2------3------------------|
Ab|-2-------3-------2-----1----------2-----3-----2--3-2-1------------------|
Eb|-0-------1-------0----------------0-----1-----0-------------------------|

Octaves
eb|-----------------------------------------------------------------------|
Bb|-----------------------------------------------------------------------|
Gb|---9~--7-9—-10~-------9-10-9—-3~--------9-10-9—-7~-------9-10-9--6~----|
Db|-----------------------------------------------------------------------|
Ab|---7~--5-7—-8~--------7-8--7—-1~--------7-8--7—-5~-------7-8--7—-4~----|
Eb|-0--------------0-0-0-------------0-0-0------------0-0-0---------------|

eb|-----------------------------------------------------------------------|
Bb|-----------------------------------------------------------------------|
Gb|------------------------------3----------------------------------3~----|
Db|-2----------3-----------------3-----------------3----------------------|
Ab|-2----------3-----------------1-----------------3----------------1~----|
Eb|-0-0---0-0--1----------0-0--0----------0-0-0----1---------0-0--0-------|

Verse

Pre-Chorus

Chorus

 The mindfuck riff
eb|------------------------------------------------------------------------|
Bb|------------------------------------------------------------------------|
Gb|------------------------------------------------------------------------|
Db|------------------------------------------------------------------------|
Ab|-----5-4--2------------5-4-----------5-4--2-----------5-4-----2-1-------|
Eb|-0-2--------3-2-3--0-2-----3-2---0-2--------3-2-3-0-2-----3-2-----------|

Backing of the sweeps
Major, minor, major, minor is the pattern. Too hard to transcribe since its doubled by 
guitar track.
eb|------------------------------------0----------------------------------|
Bb|--------------------------------0-----0--------------------------------|
Gb|------------------------------3---3------------------------------3~----|
Db|-2----------3--------2--------3-----------2-----3-------2--------------|
Ab|-2----------3--------2--------1-----------2-----3-------2--------1~----|
Eb|-0----------1--------0--------------------0-----1-------0--------------|

Backing to the tapping, no idea whats happening on the lead guitar
eb|------------------------------------------------------------------------|
Bb|------------------------------------------------------------------------|
Gb|------------------------------------------------------------------------|
Db|------------------------------------------------------------------------|
Ab|------------------------------------------------------1-1-1-1-1-1-1-1-1-|
Eb|-0-0-0-0-0-0-0-0-0-1-1-1-1-1-1-1-1--0-0-0-0-0-0-0-0-0-------------------|

Guitar solos to verse riff

The mindfuck riff again

One bar of open E, then the riff again
 "Im here to stay..."
eb|--------------------------------------------------------------|
Bb|--------------------------------------------------------------|
Gb|------7------------------7------------------------------------|
Db|-5----7----------2-------7------------------------------------|
Ab|-5--7-5----------2--5-5--5------------------------------------|
Eb|-3--------2-3-2--0--------------------------------------------|


eb|------------------------------------------------------------------------|
Bb|------------------------------------------------------------------------|
Gb|------------------------------------------------------------4-7---------|
Db|--------------------------------------------------------3-6-------------|
Ab|--------6---3-----------------------------6--3------2-5-----------------|
Eb|-0-0--0-4-1-1--1-3-4-1-3-4-1-3-4--0-0--0--4--1--1-1---------------------|

eb|------------------------------------------------------------------------|
Bb|------------------------------------------------------------------------|
Gb|------------------------------------------------------------------------|
Db|--------------------------------------------------------3-6~------------|
Ab|--------6---3-----------------------------6--3------2-5-----------------|
Eb|-0-0--0-4-1-1--1-3-4-1-3-4-1-3-4--0-0--0--4--1--1-1---------------------|

 The guitar solo
     T        T        T        T        T        T        T        T
eb|-18-15-12-18-15-12-18-15-12-18-15-12-19-15-12-19-15-12-19-15-12-19-15-12-|
Bb|-------------------------------------------------------------------------|
Gb|-------------------------------------------------------------------------|
Db|-------------------------------------------------------------------------|
Ab|-------------------------------------------------------------------------|
Eb|-------------------------------------------------------------------------|
    T         T        T        T          T           Tap, slide, bend
eb|-20-17-14-20-17-14-20-17-14-20-17-14---20--17-15-17-20/22b24-------------|
Bb|-------------------------------------------------------------------------|
Gb|-------------------------------------------------------------------------|
Db|-------------------------------------------------------------------------|
Ab|-------------------------------------------------------------------------|
Eb|-------------------------------------------------------------------------|

eb|-------15-19-15----------------------------------------------------------|
Bb|----17----------17--------------20b24r20b24r20-----19~-------------------|
Gb|-16----------------16-------21~-----------------21-----------------------|
Db|----------------------17-------------------------------------------------|
Ab|-------------------------19----------------------------------------------|
Eb|-------------------------------------------------------------------------|

   |-------------------------Palm mute-----------------------------------------|
eb|----------------------------------------------------------------------------|
Bb|-----------------------------------------------------------------10-12-13---|
Gb|-------------------------------------------------9-11-12-9-11-12------------|
Db|---------------------------------9-10-12-9-10-12----------------------------|
Ab|-----------------9-10-12-9-10-12--------------------------------------------|
Eb|-8-10-12-8-10-12------------------------------------------------------------|

eb|-------------------------------------------------------------------------|
Bb|-14^^-14^^--11^^--------Whammy-bar-wankery-------------------------------|
Gb|-------------------------------------------------------------------------|
Db|----------------------------------------------------------(5)NH----------|
Ab|-------------------------------------------------------------------------|
Eb|-------------------------------------------------------------------------|


eb|-----------------------------------------------------------------------|
Bb|-----------------------------------------------------------------------|
Gb|-----------------------------------------------------------------------|
Db|--------------------7-6-9-------------9-8----7-6-----------------------|
Ab|--------7-8-------------------8-7--10-----9------7-8-------------------|
Eb|-0-0--0-----0-0-0-0-------0-0------------------------------------------|

eb|-----------------------------------------------------------------------|
Bb|-----------------------------------------------------------------------|
Gb|-----------------------------------------------------------------------|
Db|--------------------7-6-9-------------9-8----7-6-----------------------|
Ab|--------7-8-------------------8-7--10-----9------8~--------------------|
Eb|-0-0--0-----0-0-0-0-------0-0------------------------------------------|

Ending
eb|-----------------------------------------------------------------------|
Bb|-----------------------------------------------------------------------|
Gb|----------------------------------------------------------9\-----------|
Db|----------------------9-8----7-6--------------------------9\-----------|
Ab|--7---------8------10-----9------7-8------RepeatX4--------7\-----------|
Eb|-----0---0-------------------------------------------------------------|

eb|-----------------------------------------------------------------------|
Bb|-----------------------------------------------------------------------|
Gb|----------------------------------------------------------9\-----------|
Db|--2---------3---------------------------------------------9\-----------|
Ab|--2---------3-----------------------------RepeatX4--------7\-----------|
Eb|--0--0---0--1----------------------------------------------------------|
Добавлено: 27.04.2012
Другие материалы по этой песне:
  • Аккорды и текст

Страница создана 27.04.2012
http://primanota.ru/stone/stone-cold-soul-chords.htm
Привет, Гость.
Предлагаем пройти революционный курс по гитаре.
Подарок от PrimaNota.Ru, забирай!