PrimaNota.ru - самый крупный в мире бесплатный архив песенных текстов, аккордов, табулатур и нот


Stone - Meaning Of Life - таба, видео

Регистрация Запомнить меня
Войти через:  Facebook Google Twitter Vk Yandex Mail.ru

Stone - Meaning Of Life - таба, видео

Печатать
Просмотров: 115
Авторы музыки: Janne Joutsenniemi
Авторы текста: Janne Joutsenniemi
STONE - Meaning of Life                                 
Album:Colours [1990]
Guitarists:Roope Latvala & Markku Niiranen

Tabbed by: Kyösti Arrimo
comment & complains to: inferoth@wippies.com

STONE's official myspace
an buy their records :Levykauppa ÄX

Listen this too: Airdash


TUNING                                                             
D#||------------------|------------------|------------------|
A#||------------------|------------------|------------------|
F#||------------------|------------------|------------------|
C#||------------------|------------------|------------------|
G#||------------------|------------------|------------------|
D#||------------------|------------------|------------------|


                                                          
----------------------------|----------------------------|
----------------------------|----------------------------|
----------------------------|----------------------------|
----------------------------|----------------------------|
------2--1---------2--1-----|------2--1---------2--1-----|
--1-1-------0--1-1-------0--|--1-1-------0--1-1-------0--|


                                                                      
----------------------------------|----------------------------------|
----------------------------------|----------------------------------|
----------------------------------|----------------------------------|
----------------------------------|----------------------------------|
----------2-2-1-1---------2-2-1-1-|----------2-2-1-1---------2-2-1-1-|
--1-1-2-2---------1-1-2-2---------|--1-1-2-2---------1-1-2-2---------|


                                                          
----------------------------|----------------------------|
----------------------------|----------------------------|
----------------------------|----------------------------|
----------------------------|----------------------------|
------2--1---------2--1-----|------2--1---------2--1-----|
--1-1-------0--1-1-------0--|--1-1-------0--1-1-------0--|


                                                                      
----------------------------------|----------------------------------|
----------------------------------|----------------------------------|
----------------------------------|----------------------------------|
----------------------------------|----------------------------------|
----------2-2-1-1---------2-2-1-1-|----------2-2-1-1---------2-2-1-1-|
--1-1-2-2---------1-1-2-2---------|--1-1-2-2---------1-1-2-2---------|


                                                          
----------------------------|----------------------------|
----------------------------|----------------------------|
----------------------------|----------------------------|
----------------------------|----------------------------|
------2--1---------2--1-----|------2--1---------2--1-----|
--1-1-------0--1-1-------0--|--1-1-------0--1-1-------0--|


                                                                      
----------------------------------|----------------------------------|
----------------------------------|----------------------------------|
----------------------------------|----------------------------------|
----------------------------------|----------------------------------|
----------2-2-1-1---------2-2-1-1-|----------2-2-1-1---------2-2-1-1-|
--1-1-2-2---------1-1-2-2---------|--1-1-2-2---------1-1-2-2---------|


                                                          
----------------------------|----------------------------|
----------------------------|----------------------------|
----------------------------|----------------------------|
----------------------------|----------------------------|
------2--1---------2--1-----|------2--1---------2--1-----|
--1-1-------0--1-1-------0--|--1-1-------0--1-1-------0--|


                                                                      
----------------------------------|----------------------------------|
----------------------------------|----------------------------------|
----------------------------------|----------------------------------|
----------------------------------|----------------------------------|
----------2-2-1-1---------2-2-1-1-|----------2-2-1-1---------2-2-1-1-|
--1-1-2-2---------1-1-2-2---------|--1-1-2-2---------1-1-2-2---------|


                                                          
----------------------------|----------------------------|
----------------------------|----------------------------|
----------------------------|----------------------------|
----------------------------|----------------------------|
------2--1---------2--1-----|------2--1---------2--1-----|
--1-1-------0--1-1-------0--|--1-1-------0--1-1-------0--|


                                                                      
----------------------------------|----------------------------------|
----------------------------------|----------------------------------|
----------------------------------|----------------------------------|
----------------------------------|----------------------------------|
----------2-2-1-1---------2-2-1-1-|----------2-2-1-1---------2-2-1-1-|
--1-1-2-2---------1-1-2-2---------|--1-1-2-2---------1-1-2-2---------|


                                                          
----------------------------|----------------------------|
----------------------------|----------------------------|
----------------------------|----------------------------|
----------------------------|----------------------------|
------2--1---------2--1-----|------2--1---------2--1-----|
--1-1-------0--1-1-------0--|--1-1-------0--1-1-------0--|


                                                                      
----------------------------------|----------------------------------|
----------------------------------|----------------------------------|
----------------------------------|----------------------------------|
----------------------------------|----------------------------------|
----------2-2-1-1---------2-2-1-1-|----------2-2-1-1---------2-2-1-1-|
--1-1-2-2---------1-1-2-2---------|--1-1-2-2---------1-1-2-2---------|


                                                          
----------------------------|----------------------------|
----------------------------|----------------------------|
----------------------------|----------------------------|
----------------------------|----------------------------|
------2--1---------2--1-----|------2--1---------2--1-----|
--1-1-------0--1-1-------0--|--1-1-------0--1-1-------0--|


                                                          
----------------------------|----------------------------|
----------------------------|----------------------------|
----------------------------|----------------------------|
----------------------------|----------------------------|
------2--1---------2--1-----|------2--1---------2--1-----|
--1-1-------0--1-1-------0--|--1-1-------0--1-1-------0--|


                                                       
---------------------------|--------------------------|
---------------------------|--------------------------|
---------------------------|--------------------------|
---------------------------|--------------------------|
---------------------------|--------------------------|
--0--0--3-5-0----0--3-5-0--|----0--3-5-0----0--3-5-0--|


                                                      
--------------------------|--------------------------|
--------------------------|--------------------------|
--------------------------|--------------------------|
--------------------------|--------------------------|
--------------------------|--------------------------|
----0--3-5-0----0--3-5-0--|----0--3-5-0----0--3-5-0--|


                                                      
--------------------------|--------------------------|
--------------------------|--------------------------|
--------------------------|--------------------------|
--------------------------|--------------------------|
--------------------------|--------------------------|
----0--3-5-0----0--3-5-0--|----0--3-5-0----0--3-5-0--|


                                                      
--------------------------|--------------------------|
--------------------------|--------------------------|
--------------------------|--------------------------|
--------------------------|--------------------------|
--------------------------|--------------------------|
----0--3-5-0----0--3-5-0--|----0--3-5-0----0--3-5-0--|


                                                      
--------------------------|--------------------------|
--------------------------|--------------------------|
--------------------------|--------------------------|
--------------------------|--------------------------|
--------------------------|--------------------------|
----0--3-5-0----0--3-5-0--|----0--3-5-0----0--3-5-0--|


                                                      
--------------------------|--------------------------|
--------------------------|--------------------------|
--------------------------|--------------------------|
--------------------------|--------------------------|
--------------------------|---------------------0-1--|
----0--3-5-0----0--3-5-0--|----0--3-5-0----0--3------|


                                                         
-----------------------------|--------------------------|
-----------------------------|--------------------------|
-----------------------------|--------------------------|
-----------------------------|---------2----1-----------|
----1-1-2--2-2-1--1-1-2--2-2-|--1--1-1---------2-----1--|
-----------------------------|--------------------3-----|


                                                           
-----------------------------|----------------------------|
-----------------------------|----------------------------|
-----------------------------|----------------------------|
-----------------------------|----------------------------|
----1-1-2--2-2-1--1-1-2--2-2-|--1--1-1-0--0---------------|
-----------------------------|---------------3--0--3-5-0--|


                                                         
-----------------------------|--------------------------|
-----------------------------|--------------------------|
-----------------------------|--------------------------|
-----------------------------|---------2----1-----------|
----1-1-2--2-2-1--1-1-2--2-2-|--1--1-1---------2-----1--|
-----------------------------|--------------------3-----|


                                                           
-----------------------------|----------------------------|
-----------------------------|----------------------------|
-----------------------------|----------------------------|
-----------------------------|----------------------------|
----1-1-2--2-2-1--1-1-2--2-2-|--1--1-1-0--0---------------|
-----------------------------|---------------3--0--3-5-0--|


                                                      
--------------------------|--------------------------|
--------------------------|--------------------------|
--------------------------|--------------------------|
--------------------------|--------------------------|
--------------------------|--------------------------|
----0--3-5-0----0--3-5-0--|----0--3-5-0----0--3-5-0--|


                                                      
--------------------------|--------------------------|
--------------------------|--------------------------|
--------------------------|--------------------------|
--------------------------|--------------------------|
--------------------------|--------------------------|
----0--3-5-0----0--3-5-0--|----0--3-5-0----0--3-5-0--|


                                                      
--------------------------|--------------------------|
--------------------------|--------------------------|
--------------------------|--------------------------|
--------------------------|--------------------------|
--------------------------|--------------------------|
----0--3-5-0----0--3-5-0--|----0--3-5-0----0--3-5-0--|


                                                      
--------------------------|--------------------------|
--------------------------|--------------------------|
--------------------------|--------------------------|
--------------------------|--------------------------|
--------------------------|---------------------0-1--|
----0--3-5-0----0--3-5-0--|----0--3-5-0----0--3------|


                                                         
-----------------------------|--------------------------|
-----------------------------|--------------------------|
-----------------------------|--------------------------|
-----------------------------|---------2----1-----------|
----1-1-2--2-2-1--1-1-2--2-2-|--1--1-1---------2-----1--|
-----------------------------|--------------------3-----|


                                                           
-----------------------------|----------------------------|
-----------------------------|----------------------------|
-----------------------------|----------------------------|
-----------------------------|----------------------------|
----1-1-2--2-2-1--1-1-2--2-2-|--1--1-1-0--0---------------|
-----------------------------|---------------3--0--3-5-0--|


                                                         
-----------------------------|--------------------------|
-----------------------------|--------------------------|
-----------------------------|--------------------------|
-----------------------------|---------2----1-----------|
----1-1-2--2-2-1--1-1-2--2-2-|--1--1-1---------2-----1--|
-----------------------------|--------------------3-----|


                                                                  
-----------------------------|----------------------------|------|
-----------------------------|----------------------------|------|
-----------------------------|----------------------------|------|
-----------------------------|----------------------------|------|
----1-1-2--2-2-1--1-1-2--2-2-|--1--1-1-0--0---------------|------|
-----------------------------|---------------3--0--3-5-0--|------|


                                                                       
----------------------------------|-----------------------------------|
----------------------------------|-----------------------------------|
----------------------------------|-----------------------------------|
-----------6---------------6------|-----------6---------------6----7--|
--2--5--2---------2--5--2---------|--2--5--2---------2--5--2----------|
--0--3--0---------0--3--0---------|--0--3--0---------0--3--0----------|


                                                        
----------------------------------|--------------------|
----------------------------------|--------------------|
----------------------------------|--1-----------------|
-----------6---------------6------|--------------------|
--2--5--2---------2--5--2---------|-----4--------------|
--0--3--0---------0--3--0---------|--------4--3--2--1--|


                                                                       
----------------------------------|-----------------------------------|
----------------------------------|-----------------------------------|
----------------------------------|-----------------------------------|
-----------6---------------6------|-----------6---------------6----7--|
--2--5--2---------2--5--2---------|--2--5--2---------2--5--2----------|
--0--3--0---------0--3--0---------|--0--3--0---------0--3--0----------|


                                                                          
----------------------------------|--------------------------------------|
----------------------------------|--------------------------------------|
----------------------------------|--1-----------------------------------|
-----------6---------------6------|-----------------5--4--------------3--|
--2--5--2---------2--5--2---------|-----4--------4--------3--------3-----|
--0--3--0---------0--3--0---------|--------4--3--------------3--2--------|


                                                                              
-------------------------------------------------|---------------------------|
-------------------------------------------------|---------------------------|
-----------------------------------------1--0----|---------------------------|
-----------------------------------0--2----------|---------------------------|
-----2--2-----3--3-----0-----2--3----------------|---------------------------|
--0--------0--------0-----0----------------------|--0--0--3-5-0----0--3-5-0--|


                                                      
--------------------------|--------------------------|
--------------------------|--------------------------|
--------------------------|--------------------------|
--------------------------|--------------------------|
--------------------------|--------------------------|
----0--3-5-0----0--3-5-0--|----0--3-5-0----0--3-5-0--|


                                                      
--------------------------|--------------------------|
--------------------------|--------------------------|
--------------------------|--------------------------|
--------------------------|--------------------------|
--------------------------|--------------------------|
----0--3-5-0----0--3-5-0--|----0--3-5-0----0--3-5-0--|


                                                      
--------------------------|--------------------------|
--------------------------|--------------------------|
--------------------------|--------------------------|
--------------------------|--------------------------|
--------------------------|--------------------------|
----0--3-5-0----0--3-5-0--|----0--3-5-0----0--3-5-0--|


                                                        
--------------------------|----------------------------|
--------------------------|----------------------------|
--------------------------|----------------------------|
--------------------------|----------------------------|
--------------------------|------2--1---------2--1-----|
----0--3-5-0----0--3-5-0--|--1-1-------0--1-1-------0--|


                                                                
----------------------------|----------------------------------|
----------------------------|----------------------------------|
----------------------------|----------------------------------|
----------------------------|----------------------------------|
------2--1---------2--1-----|----------2-2-1-1---------2-2-1-1-|
--1-1-------0--1-1-------0--|--1-1-2-2---------1-1-2-2---------|


                                                                
----------------------------------|----------------------------|
----------------------------------|----------------------------|
----------------------------------|----------------------------|
----------------------------------|----------------------------|
----------2-2-1-1---------2-2-1-1-|------2--1---------2--1-----|
--1-1-2-2---------1-1-2-2---------|--1-1-------0--1-1-------0--|


                                                                
----------------------------|----------------------------------|
----------------------------|----------------------------------|
----------------------------|----------------------------------|
----------------------------|----------------------------------|
------2--1---------2--1-----|----------2-2-1-1---------2-2-1-1-|
--1-1-------0--1-1-------0--|--1-1-2-2---------1-1-2-2---------|


                                                                
----------------------------------|----------------------------|
----------------------------------|----------------------------|
----------------------------------|----------------------------|
----------------------------------|----------------------------|
----------2-2-1-1---------2-2-1-1-|------2--1---------2--1-----|
--1-1-2-2---------1-1-2-2---------|--1-1-------0--1-1-------0--|


                                                                
----------------------------|----------------------------------|
----------------------------|----------------------------------|
----------------------------|----------------------------------|
----------------------------|----------------------------------|
------2--1---------2--1-----|----------2-2-1-1---------2-2-1-1-|
--1-1-------0--1-1-------0--|--1-1-2-2---------1-1-2-2---------|


                                                                
----------------------------------|----------------------------|
----------------------------------|----------------------------|
----------------------------------|----------------------------|
----------------------------------|----------------------------|
----------2-2-1-1---------2-2-1-1-|------2--1---------2--1-----|
--1-1-2-2---------1-1-2-2---------|--1-1-------0--1-1-------0--|


                                                                
----------------------------|----------------------------------|
----------------------------|----------------------------------|
----------------------------|----------------------------------|
----------------------------|----------------------------------|
------2--1---------2--1-----|----------2-2-1-1---------2-2-1-1-|
--1-1-------0--1-1-------0--|--1-1-2-2---------1-1-2-2---------|


                                                                      
----------------------------------|----------------------------------|
----------------------------------|----------------------------------|
----------------------------------|----------------------------------|
----------------------------------|-----------6---------------6------|
----------2-2-1-1---------2-2-1-1-|--2--5--2---------2--5--2---------|
--1-1-2-2---------1-1-2-2---------|--0--3--0---------0--3--0---------|


                                                                       
-----------------------------------|----------------------------------|
-----------------------------------|----------------------------------|
-----------------------------------|----------------------------------|
-----------6---------------6----7--|-----------6---------------6------|
--2--5--2---------2--5--2----------|--2--5--2---------2--5--2---------|
--0--3--0---------0--3--0----------|--0--3--0---------0--3--0---------|


                                                        
--------------------|----------------------------------|
--------------------|----------------------------------|
--1-----------------|----------------------------------|
--------------------|-----------6---------------6------|
-----4--------------|--2--5--2---------2--5--2---------|
--------4--3--2--1--|--0--3--0---------0--3--0---------|


                                                                       
-----------------------------------|----------------------------------|
-----------------------------------|----------------------------------|
-----------------------------------|----------------------------------|
-----------6---------------6----7--|-----------6---------------6------|
--2--5--2---------2--5--2----------|--2--5--2---------2--5--2---------|
--0--3--0---------0--3--0----------|--0--3--0---------0--3--0---------|


                                                                          
--------------------------------------|----------------------------------|
--------------------------------------|----------------------------------|
--1-----------------------------------|----------------------------------|
-----------------5--4--------------3--|-----------6---------------6------|
-----4--------4--------3--------3-----|--2--5--2---------2--5--2---------|
--------4--3--------------3--2--------|--0--3--0---------0--3--0---------|


                                                                       
-----------------------------------|----------------------------------|
-----------------------------------|----------------------------------|
-----------------------------------|----------------------------------|
-----------6---------------6----7--|-----------6---------------6------|
--2--5--2---------2--5--2----------|--2--5--2---------2--5--2---------|
--0--3--0---------0--3--0----------|--0--3--0---------0--3--0---------|


                                                        
--------------------|----------------------------------|
--------------------|----------------------------------|
--1-----------------|----------------------------------|
--------------------|-----------6---------------6------|
-----4--------------|--2--5--2---------2--5--2---------|
--------4--3--2--1--|--0--3--0---------0--3--0---------|


                                                                       
-----------------------------------|----------------------------------|
-----------------------------------|----------------------------------|
-----------------------------------|----------------------------------|
-----------6---------------6----7--|-----------6---------------6------|
--2--5--2---------2--5--2----------|--2--5--2---------2--5--2---------|
--0--3--0---------0--3--0----------|--0--3--0---------0--3--0---------|


                                                                      
----------------------------------|----------------------------------|
----------------------------------|----------------------------------|
--1-------------------------------|----------------------------------|
------------------4---------------|-----------6---------------6------|
-----4---------------3------------|--2--5--2---------2--5--2---------|
--------4--3------------3--2------|--0--3--0---------0--3--0---------|


                                                               
-----------------------------------|--------------------------|
-----------------------------------|--------------------------|
-----------------------------------|--------------------------|
-----------6---------------9-------|--------------------------|
--2--5--2---------2--5--2-------5--|--------------------------|
--0--3--0---------0--3--0----------|--------------------------|


                                                                            
----------------------------------------|----------------------------------|
--8--------7----------------------------|----------------------------------|
-----7--------6-----10---------9--------|----------------------------------|
--------5--------4------10--------9-----|-----------6---------------6------|
----------------------------8--------7--|--2--5--2---------2--5--2---------|
----------------------------------------|--0--3--0---------0--3--0---------|


                                                               
-----------------------------------|--------------------------|
-----------------------------------|--------------------------|
-----------------------------------|--------------------------|
-----------6---------------9-------|--------------------------|
--2--5--2---------2--5--2-------5--|--------------------------|
--0--3--0---------0--3--0----------|--------------------------|


                                                                            
----------------------------------------|----------------------------------|
----------------------------------------|----------------------------------|
----------------------------------------|----------------------------------|
------------6--5--3------------4--3--1--|-----------6---------------6------|
--6-6-6--6-----------3-3-3--3-----------|--2--5--2---------2--5--2---------|
----------------------------------------|--0--3--0---------0--3--0---------|


                                                               
-----------------------------------|--------------------------|
-----------------------------------|--------------------------|
-----------------------------------|--------------------------|
-----------6---------------9-------|--------------------------|
--2--5--2---------2--5--2-------5--|--------------------------|
--0--3--0---------0--3--0----------|--------------------------|


                                                                            
----------------------------------------|----------------------------------|
--8--------7----------------------------|----------------------------------|
-----7--------6-----10---------9--------|----------------------------------|
--------5--------4------10--------9-----|-----------6---------------6------|
----------------------------8--------7--|--2--5--2---------2--5--2---------|
----------------------------------------|--0--3--0---------0--3--0---------|


                                                               
-----------------------------------|--------------------------|
-----------------------------------|--------------------------|
-----------------------------------|--------------------------|
-----------6---------------9-------|--------------------------|
--2--5--2---------2--5--2-------5--|--------------------------|
--0--3--0---------0--3--0----------|--------------------------|


                                                                            
----------------------------------------|----------------------------------|
----------------------------------------|----------------------------------|
----------------------------------------|----------------------------------|
------------6--5--3------------4--3--1--|-----------6---------------6------|
--6-6-6--6-----------3-3-3--3-----------|--2--5--2---------2--5--2---------|
----------------------------------------|--0--3--0---------0--3--0---------|


                                                                       
-----------------------------------|----------------------------------|
-----------------------------------|----------------------------------|
-----------------------------------|----------------------------------|
-----------6---------------6----7--|-----------6---------------6------|
--2--5--2---------2--5--2----------|--2--5--2---------2--5--2---------|
--0--3--0---------0--3--0----------|--0--3--0---------0--3--0---------|


                                                        
--------------------|----------------------------------|
--------------------|----------------------------------|
--1-----------------|----------------------------------|
--------------------|-----------6---------------6------|
-----4--------------|--2--5--2---------2--5--2---------|
--------4--3--2--1--|--0--3--0---------0--3--0---------|


                                                                       
-----------------------------------|----------------------------------|
-----------------------------------|----------------------------------|
-----------------------------------|----------------------------------|
-----------6---------------6----7--|-----------6---------------6------|
--2--5--2---------2--5--2----------|--2--5--2---------2--5--2---------|
--0--3--0---------0--3--0----------|--0--3--0---------0--3--0---------|


                                       
--------------------------------------|
--------------------------------------|
--1-----------------------------------|
-----------------5--4--------------3--|
-----4--------4--------3--------3-----|
--------4--3--------------3--2--------|


                                                  
-------------------------------------------------|
-------------------------------------------------|
-----------------------------------------1--0----|
-----------------------------------0--2----------|
-----2--2-----3--3-----0-----2--3----------------|
--0--------0--------0-----0----------------------|


                                                  
-------------------------------------------------|
-------------------------------------------------|
-------------------------------------------------|
--------------------------------------2----------|
-----2--2-----3--3-----0-----------0-----0-------|
--0--------0--------0-----0--3--4-----------3----|


                                                  
-------------------------------------------------|
-------------------------------------------------|
-----------------------------------------1--0----|
-----------------------------------0--2----------|
-----2--2-----3--3-----0-----2--3----------------|
--0--------0--------0-----0----------------------|


                                                  
-------------------------------------------------|
-------------------------------------------------|
-----------------------------2--0----------------|
-----------------------0-----------2--0----------|
-----2--2-----3--3-----------------------2--1----|
--0--------0--------0-----0----------------------|


                                                  
-------------------------------------------------|
-------------------------------------------------|
-----------------------------------------1--0----|
-----------------------------------0--2----------|
-----2--2-----3--3-----0-----2--3----------------|
--0--------0--------0-----0----------------------|


                                                  
-------------------------------------------------|
-------------------------------------------------|
-------------------------------------------------|
--------------------------------------2----------|
-----2--2-----3--3-----0-----------0-----0-------|
--0--------0--------0-----0--3--4-----------3----|


                                                  
-------------------------------------------------|
-------------------------------------------------|
-----------------------------------------1--0----|
-----------------------------------0--2----------|
-----2--2-----3--3-----0-----2--3----------------|
--0--------0--------0-----0----------------------|


                                                  
-------------------------------------------------|
-------------------------------------------------|
-----------------------------2--0----------------|
-----------------------0-----------2--0----------|
-----2--2-----3--3-----------------------2--1----|
--0--------0--------0-----0----------------------|


                                                                        
-----------------------------------|-----------------------------------|
-----------------------------------|-----------------------------------|
-----------------------------------|--3--------------------------------|
-----------------------------------|--1--------------------------------|
--2--------------------------------|-----------------------------------|
--0--------------------------------|-----------------------------------|


                                                                          
-----------------------------------|-------------------------------------|
-----------------------------------|-------------------------------------|
-----------------------------------|--3----------------11~---------------|
-----------------------------------|--1----------------------------------|
--2--------------------------------|-------------------------------------|
--0--------------------------------|-------------------------------------|


                                                                        
-----------------------------------|-----------------------------------|
-----------------------------------|-----------------------------------|
-----------------------------------|--3--------------------------------|
-----------------------------------|--1--------------------------------|
--2--------------------------------|-----------------------------------|
--0--------------------------------|-----------------------------------|


                                                                        
-----------------------------------|-----------------------------------|
-----------------------------------|-----------------------------------|
-----------------------------------|--3--------------------------------|
-----------------------------------|--1--------------------------------|
--2--------------------------------|-----------------------------------|
--0--------------------------------|-----------------------------------|


                                                  
-------------------------------------------------|
-------------------------------------------------|
-----------------------------------------1--0----|
-----------------------------------0--2----------|
-----2--2-----3--3-----0-----2--3----------------|
--0--------0--------0-----0----------------------|


GUITAR SOLOS:                                                                   
------------------------------19----------19----------20----------|
----------------------------------------------------------20------|
------16----------16------------------------------------------19--|
--14------17--14------17--14------17--14------17--14--------------|
------------------------------------------------------------------|
------------------------------------------------------------------|


                                                           
--22----------22----------24------------------------------|
------20----------20----------20--------------------------|
----------21----------21----------19----19/-21--21~-------|
----------------------------------------------------------|
----------------------------------------------------------|
----------------------------------------------------------|


                                                                                
--19-19-19-19-------------19-19-19-19-------------18-18-18-18-------------------
--------------20-20-20-20-------------20-20-20-20-------------20-20-20-20-20b-22
--------------------------------------------------------------------------------
--------------------------------------------------------------------------------
--------------------------------------------------------------------------------
--------------------------------------------------------------------------------


                                                          
---------------------------------------------------------|
--0h12h8h0-12----0h12h8h0-12----0h11h8-0-11----10--------|
---------------------------------------------------------|
---------------------------------------------------------|
---------------------------------------------------------|
---------------------------------------------------------|


                                                                                
--------------------------------------------------------------------------------
--17-15-------------------17-15-------------------17-15-------------------17-15-
--------17-16-14----------------17-16-14----------------17-16-14----------------
-----------------17-16-14----------------17-16-14----------------17-16-14-------
--------------------------------------------------------------------------------
--------------------------------------------------------------------------------


                                                                       
----------------------------------------------------------------------|
--15----------------------15------------------------------------------|
-----17-16-14----------------17-16-14---------------------------------|
--------------17-16-14----------------17~-16~-17--17b---17b-17--------|
-----------------------17---------------------------------------------|
----------------------------------------------------------------------|


                                                                                
--------------------------------------------------------------------------------
--------------------------------------------------------------------------------
--12-11-------12-11-------12-11-------12-11-------14-12-11----14-12-11----14-12-
--------14-12-------14-12-------14-12-------14-12----------14----------14-------
--------------------------------------------------------------------------------
--------------------------------------------------------------------------------


                                                   
--------------------------------------------------|
--------------------------------------------------|
--14-12-------------------------------------------|
--------16-14-16------------16--16b-16------------|
--------------------------------------------------|
--------------------------------------------------|


                                                                        
-----------------------------------------------19----------------------|
-----------15----------------------------17-19-------19-17-------------|
--------16-------16-------------------16-------------------16----------|
-----14-------------17-16-14-------14-------------------------17-14----|
-----------------------------------------------------------------------|
--12-------------------------12----------------------------------------|


                                                           
--------------18----18b--18-------------21b---------------|
--------19-21---------------19----------------------------|
-----20------------------------20-------------------------|
--20------------------------------20----------------------|
-------------------------------------21-------------------|
----------------------------------------------------------|


                                                                   
--15-14----14-------12--------------------------------------------|
--------17----17-15----15-13-15-----------------------------------|
--------------------------------17-16-17-16-14-16-14--------------|
-----------------------------------------------------17-14--------|
------------------------------------------------------------------|
------------------------------------------------------------------|


                                                            
-----------------------------------------------------------|
-----------------------------------------------------------|
-----------------------------------------------------------|
--16-17-14-16----14----12----------------------------------|
--------------17----15----14-15-12-14----12----------------|
--------------------------------------15----12-14-0--------|


                                                    
---------------------------------------------------|
---------------------------------------------------|
---------------------------------------------------|
-----------------------------------5--5--7--7--12--|
-----------------------5--5--7--7------------------|
--0--3--3--5--5--7--7------------------------------|


                                                    
---------------------------------------------------|
---------------------------------------------------|
---------------------------------------------------|
--12--7--7--5--5-----------------------------------|
------------------7--7--5--5-----------------------|
------------------------------7--7--5--5--3--3--0--|


                                                                           
--------------------------------------------------------------------------|
--17t8h5h0-17t8h5h0-17t8h5h0-17t8h5h0-15t8h5h0-15t8h5h0-15t8h5h0-15t8h5h0-|
--------------------------------------------------------------------------|
--------------------------------------------------------------------------|
--------------------------------------------------------------------------|
--------------------------------------------------------------------------|


                                                                           
--------------------------------------------------------------------------|
--16t8h5h0-16t8h5h0-16t8h5h0-16t8h5h0-14t8h5h0-14t8h5h0-14t8h5h0-14t8h5h0-|
--------------------------------------------------------------------------|
--------------------------------------------------------------------------|
--------------------------------------------------------------------------|
--------------------------------------------------------------------------|


                                                                           
-------------------------------------|------------------------------------|
-------------------------------------|------------------------------------|
-------------------------------------|------------------------------------|
-------------------------------------|------------------------------------|
--19----------------7----------------|--19--------------------------------|
-------------------------------------|------------------------------------|


                                                          
----------------------------|----------------------------|
----------------------------|----------------------------|
----------------------------|----------------------------|
----------------------------|----------------------------|
------2--1---------2--1-----|------2--1---------2--1-----|
--1-1-------0--1-1-------0--|--1-1-------0--1-1-------0--|


                                                                      
----------------------------------|----------------------------------|
----------------------------------|----------------------------------|
----------------------------------|----------------------------------|
----------------------------------|----------------------------------|
----------2-2-1-1---------2-2-1-1-|----------2-2-1-1---------2-2-1-1-|
--1-1-2-2---------1-1-2-2---------|--1-1-2-2---------1-1-2-2---------|


                                                          
----------------------------|----------------------------|
----------------------------|----------------------------|
----------------------------|----------------------------|
----------------------------|----------------------------|
------2--1---------2--1-----|------2--1---------2--1-----|
--1-1-------0--1-1-------0--|--1-1-------0--1-1-------0--|


                                                                      
----------------------------------|----------------------------------|
----------------------------------|----------------------------------|
----------------------------------|----------------------------------|
----------------------------------|----------------------------------|
----------2-2-1-1---------2-2-1-1-|----------2-2-1-1---------2-2-1-1-|
--1-1-2-2---------1-1-2-2---------|--1-1-2-2---------1-1-2-2---------|


                                                          
----------------------------|----------------------------|
----------------------------|----------------------------|
----------------------------|----------------------------|
----------------------------|----------------------------|
------2--1---------2--1-----|------2--1---------2--1-----|
--1-1-------0--1-1-------0--|--1-1-------0--1-1-------0--|


                                                                      
----------------------------------|----------------------------------|
----------------------------------|----------------------------------|
----------------------------------|----------------------------------|
----------------------------------|----------------------------------|
----------2-2-1-1---------2-2-1-1-|----------2-2-1-1---------2-2-1-1-|
--1-1-2-2---------1-1-2-2---------|--1-1-2-2---------1-1-2-2---------|


                                                          
----------------------------|----------------------------|
----------------------------|----------------------------|
----------------------------|----------------------------|
----------------------------|----------------------------|
------2--1---------2--1-----|------2--1---------2--1-----|
--1-1-------0--1-1-------0--|--1-1-------0--1-1-------0--|


                                                                      
----------------------------------|----------------------------------|
----------------------------------|----------------------------------|
----------------------------------|----------------------------------|
----------------------------------|----------------------------------|
----------2-2-1-1---------2-2-1-1-|----------2-2-1-1---------2-2-1-1-|
--1-1-2-2---------1-1-2-2---------|--1-1-2-2---------1-1-2-2---------|


                                                          
----------------------------|----------------------------|
----------------------------|----------------------------|
----------------------------|----------------------------|
----------------------------|----------------------------|
------2--1---------2--1-----|------2--1---------2--1-----|
--1-1-------0--1-1-------0--|--1-1-------0--1-1-------0--|


                                                                      
----------------------------------|----------------------------------|
----------------------------------|----------------------------------|
----------------------------------|----------------------------------|
----------------------------------|----------------------------------|
----------2-2-1-1---------2-2-1-1-|----------2-2-1-1---------2-2-1-1-|
--1-1-2-2---------1-1-2-2---------|--1-1-2-2---------1-1-2-2---------|


                                                                        
-----------------------------------|-----------------------------------|
-----------------------------------|-----------------------------------|
-----------------------------------|--3--------------------------------|
-----------------------------------|--1--------------------------------|
--2--------------------------------|-----------------------------------|
--0--------------------------------|-----------------------------------|


                                                                          
-----------------------------------|-------------------------------------|
-----------------------------------|-------------------------------------|
-----------------------------------|--3----------------11~---------------|
-----------------------------------|--1----------------------------------|
--2--------------------------------|-------------------------------------|
--0--------------------------------|-------------------------------------|


                                                                        
-----------------------------------|-----------------------------------|
-----------------------------------|-----------------------------------|
-----------------------------------|--3--------------------------------|
-----------------------------------|--1--------------------------------|
--2--------------------------------|-----------------------------------|
--0--------------------------------|-----------------------------------|


                                                                        
-----------------------------------|-----------------------------------|
-----------------------------------|-----------------------------------|
-----------------------------------|--3--------------------------------|
-----------------------------------|--1--------------------------------|
--2--------------------------------|-----------------------------------|
--0--------------------------------|-----------------------------------|


                                                    
---------------------------------------------------|
---------------------------------------------------|
-----9-----10--------------9-----10----------------|
------------------9-----8---------------8-----9----|
--7-----7------7-----7--------7------7-----7-------|
---------------------------------------------------|


                                                    
---------------------------------------------------|
---------------------------------------------------|
-----9-----10--------------9-----10----------------|
------------------9-----8---------------8-----9----|
--7-----7------7-----7--------7------7-----7-------|
---------------------------------------------------|


                                                    
---------------------------------------------------|
---------------------------------------------------|
-----9-----10--------------9-----10----------------|
------------------9-----8---------------8-----9----|
--7-----7------7-----7--------7------7-----7-------|
---------------------------------------------------|


                                                    
---------------------------------------------------|
---------------------------------------------------|
-----9-----10--------------9-----10----------------|
------------------9-----8---------------8-----9----|
--7-----7------7-----7--------7------7-----7-------|
---------------------------------------------------|


                                                    
---------------------------------------------------|
---------------------------------------------------|
-----9-----10--------------9-----10----------------|
------------------9-----8---------------8-----9----|
--7-----7------7-----7--------7------7-----7-------|
---------------------------------------------------|


                                                    
---------------------------------------------------|
---------------------------------------------------|
-----9-----10--------------9-----10----------------|
------------------9-----8---------------8-----9----|
--7-----7------7-----7--------7------7-----7-------|
---------------------------------------------------|


                                                    
---------------------------------------------------|
---------------------------------------------------|
-----9-----10--------------9-----10----------------|
------------------9-----8---------------8-----9----|
--7-----7------7-----7--------7------7-----7-------|
---------------------------------------------------|


                                                    
---------------------------------------------------|
---------------------------------------------------|
-----9-----10--------------9-----10----------------|
------------------9-----8---------------8-----9----|
--7-----7------7-----7--------7------7-----7-------|
---------------------------------------------------|


                                                                            
------------------------------------|--------------------------------------|
------------------------------------|--------------------------------------|
------------------------------------|--------------------------------------|
----------8----------------8--------|------8--------8--------8--------8----|
----------6----------------6--------|------6--------6--------6--------6----|
------------------------------------|--------------------------------------|


                                                                   
------------------------------------------------------------------|
------------------------------------------------------------------|
----------------------------------9-9-9-9-9-9-9-9-9-9-9-9-9-9-9-9-|
------------------------------------------------------------------|
--7-7-7-7-7-7-7-7-7-7-7-7-7-7-7-7---------------------------------|
------------------------------------------------------------------|


                                                       
--------------------------|--------------------------||
--------------------------|--------------------------||
--------------------------|--------------------------||
--------------------------|--------------------------||
--------------------------|--------------------------||
----0--3-5-0----0--3-5-0--|----0--3-5-0----0--3-5-0--||
Добавлено: 10.07.2012
Другие материалы по этой песне:

Страница создана 22.04.2012
http://primanota.ru/stone/meaning-of-life-chords.htm
Привет, Гость.
Предлагаем пройти революционный курс по гитаре.
Подарок от PrimaNota.Ru, забирай!