PrimaNota.ru - самый крупный в мире бесплатный архив песенных текстов, аккордов, табулатур и нот


Stone - Get Stoned - таба, видео

Регистрация Запомнить меня
Войти через:  Facebook Google Twitter Vk Yandex Mail.ru

Stone - Get Stoned - таба, видео

Печатать
Просмотров: 151
Уроки эстрадного вокала в Санкт-Петербурге
Авторы музыки: Janne Joutsenniemi
Авторы текста: Janne Joutsenniemi
STONE : Get Stoned
(Janne Joutsenniemi)


Transcribed and tabbed by Iiro P
angel-raper@hotmail.com




Intro

Guitar1 (fade-in)
-------|----------------------------------------------------------------------|
-------|----------------------------------------------------------------------|
-------|-----6-----------------------------------7-----------------9~~--------|
-------|----------------------------------------------------------------------|
-------|-----------------------7----------------------------------------------|
-------|----------------------------------------------------------------------|
Guitar2                                                                       |
-------|----------------------------------------------------------------------|
-------|----------------------------------------------------------------------|
-------|-------------------9-----------------------------------9--------------|
-------|-----8---------------8-6-----------------8---------------8-5----------|
-------|-6-7---------------------------------6-7------------------------------|
-0---0-|-------------0---0-------------0---0-------------0---0----------------|




|-----------------------------------------------------------|
|-----------------------------------------------------------|
|---------------------9-------------------------------------|
|-----------8-----------8-6-------------8-------------------|
|-------6-7-------------------------6-7-----7---6-7-6-7-8---|
|-0---0---------0---0---------0---0---------5---4-5-4-5-6---|
|                                                           |
|-----------------------------------------------------------|
|-----------------------------------------------------------|
|---------------------9-------------------------------------|
|-----------8-----------8-6-------------8-------------------|
|-------6-7-------------------------6-7-----7---6-7-6-7-8---|
|-0---0---------0---0---------0---0---------5---4-5-4-5-6---|




|---------------------------------------------------------------------------|
|---------------------------------------------------------------------------|
|---------------------9-----------------------------------------------------|
|-----------8-----------8-5-------------8-------------------7---6-7-6-7-----|
|-------6-7-------------------------6-7-----7---6-7-6-7-8---------------8---|
|-0---0---------0---0---------0---0---------5---4-5-4-5-6-------------------|
|                                                                           |
|---------------------------------------------------------------------------|
|---------------------8-----------------------------------------------------|
|-----------------------6---------------------------------------------------|
|-----------8-------------8-------------8-----------------------------------|
|-------6-7-------------------------6-7-----7---6-7-6-7-8-------------------|
|-0---0---------0---0---------0---0---------5---4-5-4-5-6---5---4-5-4-5-6^--|




|---------------------------------------------------------------------------|
|---------------------------------------------------------------------------|
|---------------------9-----------------------------------------------------|
|-----------8-----------8-6-------------8-----------------------------------|
|-------6-7-------------------------6-7-----7---6-7-6-7-8-------------------|
|-0---0---------0---0---------0---0---------5---4-5-4-5-6-------------------|
              

   

|---------------------------------------------------------------------------|---------
|---------------------------------------------------------------------------|---------
|---------------------9-------------------------------------9---8-9-8-9-----|---------
|-----------8-----------8-5-------------8-------------------7---6-7-6-7-10--|-2-------
|-------6-7-------------------------6-7-----7---6-7-6-7-8---------------8---|-2-------
|-0---0---------0---0---------0---0---------5---4-5-4-5-6-------------------|-0-------




verse riff.

||-----------------------------------------------------------||
||-----------------------------------------------------------||
||-----------------------------------------------------------||
||-----------------------------7-8-9-------------------------||
||-2---2-3-----7-6-2---2-3-----5-6-7-----------------2-3-5---||
||-0---0-1---0-5-4-0---0-1---0--------0--5---3-2-3-5---------||
                   



|---------------------------------------------------------------------------|
|---------------------------------------------------------------------------|
|---------------------9-----------------------------------------------------|
|-----------8-----------8-6-------------8-----------------------------------|
|-------6-7-------------------------6-7-----7---6-7-6-7-8-------------------|
|-0---0---------0---0---------0---0---------5---4-5-4-5-6-------------------|



|---------------------------------------------------------------------------|
|---------------------------------------------------------------------------|
|---------------------9-------------------------------------9---8-9-8-9-----|
|-----------8-----------8-5-------------8-------------------7---6-7-6-7-10--|
|-------6-7-------------------------6-7-----7---6-7-6-7-8---------------8---|
|-0---0---------0---0---------0---0---------5---4-5-4-5-6-------------------|




verse riff 4 times.



|-----------------------------------------------------------------------------|
|-----------------------------------------------------------------------------|
|-----------------------------------------------------------------------------|
|-5-5-5-4-2---------------------------4---4-4-4-4-4-4---5-5-5-4-2-------------|
|-3-3-3-2-0-4---4-4-4-4-4-2---2-2-2-2-2---2-2-2-2-2-2---3-3-3-2-0-3---3-3-3-3-|
|-----------2---2-2-2-2-2-0---0-0-0-0-----------------------------1---1-1-1-1-|


|-----------------
|-----------------
|-9---5---4-------
|-9---5---4-------
|-7---3---2-------
|-----------------




Chorus
Riff 1

|-----------------------------------------------------------|
|-----------------------------------------------------------|
|---------------------9-------------------------------------|
|-----------8-----------8-6-------------8-------------------|
|-------6-7-------------------------6-7-----7---6-7-6-7-8---|
|-0---0---------0---0---------0---0---------5---4-5-4-5-6---|



|-----------------------------------------------------------|
|---------------------8-------------------------------------|
|---------------------9-6-3---------------------------------|
|-----------8-----------8-5-------------8-------------------|
|-------6-7-------------------------6-7-----7---6-7-6-7-8---|
|-0---0---------0---0---------0---0---------5---4-5-4-5-6---|



|-----------------------------------------------------------|
|-----------------------------------------------------------|
|---------------------9-------------------------------------|
|-----------8-----------8-6-------------8-------------------|
|-------6-7-------------------------6-7-----7---6-7-6-7-8---|
|-0---0---------0---0---------0---0---------5---4-5-4-5-6---|



|---------------------------------------------------------------------------|---------
|---------------------------------------------------------------------------|---------
|---------------------9-------------------------------------9---8-9-8-9-----|---------
|-----------8-----------8-5-------------8-------------------7---6-7-6-7-10--|-2-------
|-------6-7-------------------------6-7-----7---6-7-6-7-8---------------8---|-2-------
|-0---0---------0---0---------0---0---------5---4-5-4-5-6-------------------|-0-------




(2:08)


 Guitar1
|---------------------------------------|---------------------------------------|
|---------------------------------------|---------------------------------------|
|---------------------------------------|---------------------------------------|
|---------------------------------------|---------------------------------------|
|----7-7----7-7--------7---7-7---7-5-8--|----7-7----7-7--------7---7-7---7-5-4--|
|-0------0------0--0-0---0-----0--------|-0------0------0--0-0---0-----0--------|
|                                                                               |
|Guitar2                                                                        |
|---------------------------------------|---------------------------------------|
|---------------------------------------|---------------------------------------|
|---------------------------------------|---------------------------------------|
|---------------------------------------|---------------------------------------|
|---------------------------------------|---------------------------------------|
|---------------------------------------|---------------------------------------|




|---------------------------------------|---------------------------------------|
|---------------------------------------|---------------------------------------|
|---------------------------------------|---------------------------------------|
|---------------------------------------|---------------------------------------|
|---------------------------------------|--------------------7-7-7-7-7-7-7-7-7\-|
|---------------------------------------|---------------------------------------|
|                                                                               |
|---------------------------------------|---------------------------------------|
|---------------------------------------|---------------------------------------|
|---------------------------------------|---------------------------------------|
|---------------------------------------|---------------------------------------|
|----7-7----7-7--------7---7-7---7-5-8--|----7-7----7-7------7-7-7-7-7-7-7-7-7--|
|-0------0------0--0-0---0-----0--------|-0------0------0--0--------------------|




|---------------------------------------|---------------------------------------|
|---------------------------------------|---------------------------------------|
|---------------------------------------|---------------------------------------|
|---------------------------------------|---------------------------------------|
|----7-7----7-7--------7---7-7---7-5-8--|----7-7----7-7--------7---7-7---7-5-4--|
|-0------0------0--0-0---0-----0--------|-0------0------0--0-0---0-----0--------|
|                                                                               |
|---------------------------------------|---------------------------------------|
|---------------------------------------|---------------------------------------|
|---------------------------------------|---------------------------------------|
|---------------------------------------|---------------------------------------|
|----7-7----7-7--------7---7-7---7-5-8--|----7-7----7-7--------7---7-7---7-5-4--|
|-0------0------0--0-0---0-----0--------|-0------0------0--0-0---0-----0--------|




|---------------------------------------|---------------------------------------|
|---------------------------------------|---------------------------------------|
|---------------------------------------|---------------------------------------|
|---------------------------------------|---------------------------------------|
|----7-7----7-7--------7---7-7---7-5-8--|----7-7----7-7--------7---7-7---7-5-4--|
|-0------0------0--0-0---0-----0--------|-0------0------0--0-0---0-----0--------|
|                                                                               |
|---------------------------------------|---------------------------------------|
|---------------------------------------|---------------------------------------|
|---------------------------------------|---------------------------------------|
|---------------------------------------|---------------------------------------|
|----7-7----7-7--------7---7-7---7-5-8--|----7-7----7-7--------7---7-7---7-5-4--|
|-0------0------0--0-0---0-----0--------|-0------0------0--0-0---0-----0--------|




|---------------------------------------|---------------------------------------|
|---------------------------------------|---------------------------------------|
|---------------------------------------|---------------------------------------|
|----5-5----5-5--------5---5-5---5-4-7--|----5-5----5-5--------5---5-5---5-4-2--|
|---------------------------------------|---------------------------------------|
|-0------0------0--0-0---0-----0--------|-0------0------0--0-0---0-----0--------|
|                                                                               |
|---------------------------------------|---------------------------------------|
|---------------------------------------|---------------------------------------|
|---------------------------------------|---------------------------------------|
|---------------------------------------|---------------------------------------|
|----7-7----7-7--------7---7-7---7-5-8--|----7-7----7-7--------7---7-7---7-5-4--|
|-0------0------0--0-0---0-----0--------|-0------0------0--0-0---0-----0--------|




|---------------------------------------|---------------------------------------|
|---------------------------------------|---------------------------------------|
|---------------------------------------|---------------------------------------|
|----9-9----9-9--------9---9-9---9-7-10-|----9-9----9-9--------9---9-9---9-7-8--|
|---------------------------------------|---------------------------------------|
|-0------0------0--0-0---0-----0--------|-0------0------0--0-0---0-----0--------|
|                                                                               |
|---------------------------------------|---------------------------------------|
|---------------------------------------|---------------------------------------|
|---------------------------------------|---------------------------------------|
|---------------------------------------|---------------------------------------|
|----7-7----7-7--------7---7-7---7-5-8--|----7-7----7-7--------7---7-7---7-5-4--|
|-0------0------0--0-0---0-----0--------|-0------0------0--0-0---0-----0--------|




(2:52)

soolo

(vähän sinne päin... :)


|-----------7------10---9b10r9~---5-8-7-5--------------------------------------|
|-----7---8---8---------------------------------8-7-5--------------------------|
|---9-------------------------------------7-5-4----------------------/4-4-4-4^-|
|-------9---------------------------------------------7-5-4~~------------------|
|-7----------------------------------------------------------------------------|
|------------------------------------------------------------------------------|
|                                                                              |
|------------------------------------------------------------------------------|
|------------------------------------------------------------------------------|
|---------------5-------------------------------7------------------------------|
|-2-------------5---4-------------5-------------7---7--------------------------|
|-2-------------3---4-------------5-------------5---7--------------------------|
|-0-----------------2-------------3-----------------5--------------------------|
                                                                              



|---------------------------------------------------------------------------------|
|--------------------------------4~--5p0-0-0-0-0-7p0-0-0-0-0-8p0-0-0-0-0--------7/|
|-4h5p4---4------------------4~------------------------------------------4b5r4~~--|
|-------7---7-5-4-5-4-----4-------------------------------------------------------|
|---------------------7-5---------------------------------------------------------|
|---------------------------------------------------------------------------------|




|-10p7----7-10p----7-10p7----7-10p7--------------------------------------------|
|------10-------10--------10--------10-8---8-10p8---8--------------------------|
|----------------------------------------9--------9---9-7-9--7-jne...----------|
|------------------------------------------------------------------------------|
|------------------------------------------------------------------------------|
|------------------------------------------------------------------------------|
                                                                              



(3:14)

|---------------------------------------|---------------------------------------|
|---------------------------------------|---------------------------------------|
|---------------------------------------|---------------------------------------|
|---------------------------------------|---------------------------------------|
|----7-7----7-7--------7---7-7---7---7--|----7-7----7-7--------7---7-7---7---7--|
|-0------0------0--0-0---0-----0---0----|-0------0------0--0-0---0-----0---0----|
|                                                                               |
|---------------------------------------|---------------------------------------|
|---------------------------------------|---------------------------------------|
|---------------------------------------|---------------------------------------|
|---------------------------------------|---------------------------------------|
|----7-7----7-7--------7---7-7---7---7--|----7-7----7-7--------7---7-7---7---7--|
|-0------0------0--0-0---0-----0---0----|-0------0------0--0-0---0-----0---0----|




|---------------------------------------|------------------------------------------------------|
|---------------------------------------|------------------------------------------------------|
|---------------------------------------|------------------------------------------------2/5---|
|---------------------------------------|--------------------------------5---3---1-------------|
|----7-7----7-7--------7---7-7---7---7--|----7-7----7-7--------7---7-7-------------------------|
|-0------0------0--0-0---0-----0---0----|-0------0------0--0-0---0-----0-----------------------|
|                                                                                              |
|---------------------------------------|------------------------------------------------------|
|---------------------------------------|------------------------------------------------------|
|---------------------------------------|------------------------------------------------------|
|---------------------------------------|------------------------------------------------------|
|----7-7----7-7--------7---7-7---7---7--|----7-7----7-7--------7---7-7---7---5---3-------------|
|-0------0------0--0-0---0-----0---0----|-0------0------0--0-0---0-----0-----------------------|




Chorus (riff 1)

Guitar solo 2



(4:10)

|---------------------------------------|---------------------------------------|
|---------------------------------------|---------------------------------------|
|---------------------------------------|---------------------------------------|
|------------------------------------5--|------------------------------------5--|
|----7-7----7-7--------7---7-7---7---7--|----7-7----7-7--------7---7-7---7---7--|
|-0------0------0--0-0---0-----0---0----|-0------0------0--0-0---0-----0---0----|




|---------------------------------------|---------------------------------------|
|---------------------------------------|---------------------------------------|
|---------------------------------------|---------------------------------------|
|------------------------------------5--|---------------------------------------|
|----7-7----7-7--------7---7-7---7---7--|----7-7----7-7-------------------------|
|-0------0------0--0-0---0-----0---0----|-0------0------0-----------------------|



Добавлено: 28.05.2012
Другие материалы по этой песне:

Страница создана 24.05.2012
http://primanota.ru/stone/get-stoned-chords.htm
Привет, Гость.
Предлагаем пройти революционный курс по гитаре.
Подарок от PrimaNota.Ru, забирай!