PrimaNota.ru - самый крупный в мире бесплатный архив песенных текстов, аккордов, табулатур и нот


Stone Temple Pilots - Sex & Violence - аккорды и текст, таба, бас-таба, видео

Регистрация Запомнить меня
Войти через:  Facebook Google Twitter Vk Yandex Mail.ru

Stone Temple Pilots - Sex & Violence - аккорды и текст, таба, бас-таба, видео

Печатать
Просмотров: 135
Авторы музыки: Robert DeLeo
Авторы текста: Scott Weiland
Sex & Violence
Stone Temple Pilots
SONG: Sex and Violence
ARTIST: Stone Temple Pilots
ALBUM: No. 4

INTRO (bend the strings a little bit)

E|-6--3--6--3---1-/-3--|
B|-6--3--6--3---1-/-3--|
G|-7--4--7--4---2-/-4--|  X 2
D|-8--5--8--5---3-/-5--|
A|-8--5--8--5---3-/-5--|
E|-6--3--6--3---1-/-3--|

VERSES (fast!)

E|-----------------------------------------
B|-----------------------------------------
G|-----------------------------------------
D|-5-8-12-11-11-11-11-11-11-11-11-11-11-11-
A|-5-8-12-11-11-11-11-11-11-11-11-11-11-11-
E|-3-6-10--9--9--9--9--9--9--9--9--9--9--9-

E|-----------------------------------|
B|-----------------------------------|
G|-----------------------------------|
D|-10-11-10-5-5-5-5-5-5-5-5-5-5-5-5--|
A|-10-11-10-5-5-5-5-5-5-5-5-5-5-5-5--|
E|--8--9--8-3-3-3-3-3-3-3-3-3-3-3-3--|

PRECHORUS (listen for the guitar part)

E|----------------------------------------------------|
B|-7-5-7----7-5-7-------------------------------------|
G|-5-5-5----5-5-5----4-4-4----3-3-3----7-7-7---7-7-7--|
D|-7-7-7----7-7-7----4-4-4----3-3-3----7-7-7---7-7-7--|
A|-------------------2-2-2----1-1-1----5-5-5---5-5-5--|
E|----------------------------------------------------|

CHORUS

E|------------------------------
B|------------------------------
G|------------------------------ X 2
D|-8-8-8-8-8-8-8-8-8-8-8-8-8-8--
A|-8-8-8-8-8-8-8-8-8-8-8-8-8-8--
E|-6-6-6-6-6-6-6-6-6-6-6-6-6-6--

E|-4-4-4-2-2-2-2-2-2-2-2-2-2-2--|
B|-3-3-3-3-3-3-3-3-3-3-3-3-3-3--|
G|-2-2-2-2-2-2-2-2-2-2-2-2-2-2--| X 2
D|-0-0-0-0-0-0-0-0-0-0-0-0-0-0--|
A|------------------------------|
E|------------------------------|

ENDING

E|-4b-4b-4b-4b--4b-4b--|
B|-3b-3b-3b-3b--3b-3b--|
G|-2b-2b-2b-2b--2b-2b--|  X 2
D|---------------------|
A|---------------------|
E|---------------------|

Tabbed by Ryan L.
     
Добавлено: 17.11.2013
Другие материалы по этой песне:

Страница создана 12.03.2012
http://primanota.ru/stone-temple-pilots/sex-and-violence-chords.htm
Привет, Гость.
Предлагаем пройти революционный курс по гитаре.
Подарок от PrimaNota.Ru, забирай!