PrimaNota.ru - самый крупный в мире бесплатный архив песенных текстов, аккордов, табулатур и нот


Stone Temple Pilots - Purple - таба, видео

Регистрация Запомнить меня
Войти через:  Facebook Google Twitter Vk Yandex Mail.ru

Stone Temple Pilots - Purple - таба, видео

Печатать
Просмотров: 246
Уроки эстрадного вокала в Санкт-Петербурге
#-----------------------------------------------------------------------------#
#-- File created with Instab - http://www.pconline.com/~smcarey/instab.html --#
#-----------------------------------------------------------------------------#

Author/Artist: Stone Temple Pilots
Title: Purple Album

p pull off
h hammer on
A arpeggio
P pluck
/ slide up
\ slide down
b bend
r release bend
H natural harmonic
_ pick chord
C chord
V vibrato

If anyone has the solos and would like to add them please send them to
me.

Meatplow
Standard Tuning


------|-----------------------------------------|-----------------------------|
------|-----------------------------------------|-----------------------------|
------|-----------------------------------------|-----------------------------|
------|----------x--x--x-x--x--x-x-x--x--x--x-x-|-----------------------------|
------|-------3--4--4--4-4--4--x-x-4--4--4--4-4-|-----------------------------|
------|-0-3-5----2--2--2-0--2--x-x-2--0--2--2-2-|-----------------------------|
       Intro

------|-0-----0------------------------------------------------|--|-0---0--|--|
------|-x-----x------------------------------------------------|--|-x---x--|--|
------|-4-----5----4/5---------------------4-------------------|--|-4---5--|--|
------|-4-----5----3---3--3--x-x-3--3--x-x-3---3--3--x-x-3--3--|--|-4---5--|--|
------|-2-----3----3---3--3--x-x-3--3--x-x-3---3--3--x-x-3--3--|--|-2---3--|--|
------|-x-----x----x---x--x--x-x-x--x--x-x-x---x--x--x-x-x--x--|--|-x---x--|--|
        Strum....  4/5 (G2)

------|-----------------------------------------------------------------------|
------|-----------------------------------------------------------------------|
------|--------------------------------------------------------------------x--|
------|-7--2--2---2--2---2---5--7--2--2--2---x--x--8\--x--x--x--x----x--x--x--|
------|-5--0--0---0--0---0---3--5--0--0--0---3--3--8\--5--5--5--5----5--5-----|
------|-x--x--x---x--x---x---x--x--x--x--x---1--1--x---3--3--3--3----3--6-----|
       Chorus

--------------|---------------------------------------------------------------|
--------------|---------------------------------------------------------------|
-x-x----------|---------------------------------------------------------------|
-x-x-5--x--5--|---------------------------------------------------------------|
-----3--5--3--|---------------------------------------------------------------|
-----x--3--x--|---------------------------------------------------------------|


------|-x---x--------|--------------------------------------------------------|
------|-0---0--------|--------------------------------------------------------|
------|-3---2--------|--------------------------------------------------------|
------|-x---x--------|--------------------------------------------------------|
------|-4---3--------|--------------------------------------------------------|
------|-2---1--------|--------------------------------------------------------|
        A   A   hit last chord





Vasoline
Standard Tuning


----------|------------------------|---0----|---------------------------------|
----------|------------------------|---0----|---------------------------------|
----------|------------------------|---7----|---------------------------------|
----------|------------------------|---7----|---------------------------------|
----------|------------------------|---x----|---------------------------------|
----------|----6vvvvvvvvvvvv-------|---6----|---------------------------------|
   Intro                       Mess w/ chord


----------|---------------------|--|------------------------------|----------|
----------|---------------------|--|------------------------------|----------|
----------|---------------------|--|------------------------------|----------|
----------|---------------------|3x|------------------------------|-x-x-x-x--|
----------|---------------------|--|------------------------------|-x-x-x-x--|
----------|-1-3--1-3--1-3--1-3--|--|-1-3--1-3--1-3--1-4b--4-1vvvvv|-x-x-x-x--|
   Verse

----------|------------|----------------------------|-------------------------|
----------|------------|----------------------------|-------------------------|
----------|------------|----------------------------|-------------------------|
----------|------------|----------------------------|-------------------------|
----------|------------|----------------------------|-------------------------|
----------|------------|-1-3--1-3--1-3--1-3--1-3-3--|-------------------------|
           Verse Riff

----------|---------|--|---------|---------|--|---------------|---------------|
----------|---------|--|---------|---------|--|---------------|---------------|
----------|---8---8-|--|-8-7-6-5-|---5---5-|--|-5-5-5-5-5-----|---------------|
----------|-8-8-8-8-|7x|-8-7-6-5-|-5-5-5-5-|6x|-5-5-5-5-5-x---|---------------|
----------|-6---6---|--|---------|-3---3---|--|-----------3---|---------------|
----------|-x---x---|--|---------|-x---x---|--|-----------1---|---------------|
   Chorus                                     "in the vasoline"

----------|--------|----------------------------|-----|------0---------------|
----------|--------|----------------------------|-----|------0---------------|
----------|--------|----------------x\x\x\x\x\x-|-----|------7---------------|
----------|--------|----------------x\x\x\x\x\x-|-----|------7---------------|
----------|--------|----------------------------|-----|------x---------------|
----------|--------|-1-3--1-3--1-3--------------|-----|------6---------------|
            Verse                                Verse  Interlude Chord


-------|-8p7-----8p7-----8p7-----8p7-----8p7-----8p7-----8p7-----8p7----------|
-------|-----6-6-----6-6-----6-6-----6-6-----6-6-----6-6-----6-6-----6-6-6bvv-|
-------|----------------------------------------------------------------------|
-------|----------------------------------------------------------------------|
-------|----------------------------------------------------------------------|
-------|----------------------------------------------------------------------|
   Solo

--------------------------------(5)------------------------------------------|
-----------------------------------------------------------------------------|
--4-4-4p0---0-------4-4-4p0---0---------4-4-4p0---0-------4-4-4p0---0-4---4--|
----------5-----------------5-------------------5-----------------5-----5----|
--------------2-2-----------------------------------2-2----------------------|
-----------------------------------------------------------------------------|
                                Harmonic

--------|--------|--------|-------------|-0-----------|-----------------------|
--------|--------|--------|-------------|-5-----------|-----------------------|
--------|--------|--------|-------------|-7-----------|-----------------------|
--------|--------|--------|-------------|-7-----------|-----------------------|
--------|--------|--------|-------------|-x-----------|-----------------------|
--------|--------|--------|-------------|-6-----------|-----------------------|
          Verse    Chorus  Verse Riff    Out




Lounge Fly
Standard Tuning


------|-------------|-0-----0---0-0-0-0---|--|----------|---------------------|
------|-------------|-3-----3---x-x-x-x---|--|----------|---------------------|
------|-7-----------|-x-----x---5-4-5-4---|--|-7--------|---------------------|
------|-7-----------|-4-----4---3-3-3-3---|--|-7--------|---------------------|
------|-------------|-5-----5---3-2-3-2---|--|----------|---------------------|
------|-------------|-x-----x---x-x-x-x---|--|----------|---------------------|
       Intro Chord    G1 Chords

------|-------------|---------------------|--|--------------------------------|
------|-------------|---------------------|--|--------------------------------|
------|-------------|-10br--7-------------|--|--------------------------------|
------|-------------|---------------------|--|--------------------------------|
------|-------------|---------------------|--|--------------------------------|
------|-------------|---------------------|--|--------------------------------|
                      G2

------|-x-----x----|--|-x----|------------------------------------------------|
------|-3-----3----|--|-5----|------------------------------------------------|
------|-0-----0----|--|-5----|------------------------------------------------|
------|-x-----x----|--|-x----|------------------------------------------------|
------|-5-----5----|--|-7----|------------------------------------------------|
------|-3-----6----|--|-8----|------------------------------------------------|
        Chords

------|-x--x--x--x--x-x--x--|--|----------------------------------------------|
------|-3--3--3--3--3-3--3--|--|----------------------------------------------|
------|-1--2--4--2--1-1--1--|--|----------------------------------------------|
------|-0--0--0--0--0-0--0--|--|----------------------------------------------|
------|-0--0--0--0--0-0--0--|--|----------------------------------------------|
------|-x--x--x--x--x-x--x--|--|----------------------------------------------|
        Chords




Interstate Love Song
Standard Tuning


------|-4---x---x---x--x---x-------|------------------------------------------|
------|-5---5---5---4--4---5-------|------------------------------------------|
------|-x---4---4---6--5---6---1---|------------------------------------------|
------|-6---6---7---6--6---7---2---|------------------------------------------|
------|-4---7---7---6--6---7-------|------------------------------------------|
------|-x---x---x---x--x---x-------|------------------------------------------|
  Intro G1  -   -  Chords Strum

------|----------------------------------------------|------------------------|
------|---------------------------------4--4br-------|------------------------|
------|-4/6--4-4/6\4-----------------5----------6---\|------------------------|
------|---------------6-------4-4/6------------------|------------------------|
------|------------------9\7-------------------------|------------------------|
------|----------------------------------------------|------------------------|
   Intro G2

-|0----0--0--0--------0-----x---------x------x---x------x---------x------x---|
-|2br--2--0---------0-------0---------0------0---0------0---------5------5---|
-|-----------2--1h2---------1-x-x-----1------1---1---x--2--x------4------4---|
-|----------------------2-----x-x-2-----2--2---2---2-x--4--x--6-----6--6---6-|
-|----------------------2---------2-----2--2---2---2----4-----7-----7--7---7-|
-|----------------------x---------x-----x--x---x---x----x-----x-----x--x---x-|
  P    P  P  P                                          C     5=0 2nd time

------|----------------------------------------x--------------------------x---|
------|----------------------------------------4--------------------------2---|
------|-6--6--x-x-x-6--6-6--6-6-6--5--5--x-x-x-5--5-5--5-5-5--1--1--x-x-x-1---|
------|-6--6--x-x-x-6--6-6--6-6-6--6--6--x-x-x----6-6--6-6-6--3--3--x-x-x-----|
------|-----------------------------------------------------------------------|
------|-----------------------------------------------------------------------|
      Verse

-------------------------x------------------|---------------------|-----------|
-------------------------2------------------|---------------------|-----------|
-1-1--1-1-1--1--1--x-x-x-1--1-1--1-1-1--2---|---------------------|-----------|
-3-3--3-3-3--2--2--x-x-x----2-2--2-2-2--2---|---------------------|-----------|
--------------------------------------------|---------------------|-----------|
--------------------------------------------|---------------------|-----------|
                                              Last Part of Riff 1

------|-x---x---x----x---x---x---x---x---x---x---x---x--|---------------------|
------|-5---5---5----4---4---5---0---5---4---4---5---0--|---------------------|
------|-6---4---4----6---5---6---1---6---6---5---6---1--|---------------------|
------|-6---6---7----6---6---7---2---7---6---6---7---2--|---------------------|
------|-4---7---7----6---6---7---2---7---6---6---7---2--|---------------------|
------|-x---x---x----x---x---x---x---x---x---x---x---x--|---------------------|
       Chorus Chords Strum




Still Remains
Standard Tuning


------|------------------------------|--|-------------|-----------------------|
------|------------------------------|--|-----5---0---|-----------------------|
------|-4/6-6-6-6--4-4/6-6-6-4/6-7p6-|--|-----6---4---|-----------------------|
------|-6/7-7-7-7--6-6/7-7-7-6/7-7---|--|-7-----------|-----------------------|
------|------------------------------|--|-0-----------|-----------------------|
------|------------------------------|--|-x-----------|-----------------------|
       Intro/Verse                            P   P

------|-x---x---x---|--|------------------------------------------------------|
------|-5---6---3---|--|------------------------------------------------------|
------|-6---5---4---|--|------------------------------------------------------|
------|-7---3---5---|--|------------------------------------------------------|
------|-0---3---2---|--|------------------------------------------------------|
------|-x---x---x---|--|------------------------------------------------------|
        PreChorus Chords Strum

------|-x---x---x---x---|--|-x----x---x---x---|-------------------------------|
------|-6---5---3---5---|--|-10---8---3---5---|-------------------------------|
------|-5---5---4---6---|--|-10---7---4---6---|-------------------------------|
------|-3---3---5---7---|--|-10---5---5---7---|-------------------------------|
------|-3---3---0---0---|--|-8----5---0---0---|-------------------------------|
------|-x---x---x---x---|--|-x----x---x---x---|-------------------------------|
        Chorus Chords Strum

------|--------|--------------------------------------------------------------|
------|--------|--------------------------------------------------------------|
------|-6------|--------------------------------------------------------------|
------|-7------|--------------------------------------------------------------|
------|--------|--------------------------------------------------------------|
------|--------|--------------------------------------------------------------|
       Bridge Chord






Pretty Penny
Standard Tuning


------|---------x-----x----|--------------------------------------------------|
------|---------8-----8----|--------------------------------------------------|
------|---------7-----7----|--------------------------------------------------|
------|-9--9-7----5-----5--|--------------------------------------------------|
------|-7--7-7----5-----5--|--------------------------------------------------|
------|-x--x-x----x-----x--|--------------------------------------------------|
        P

------|-----------------------|--|-------------|------------------------------|
------|-5b-4b-2b-0--0h2-2h4-4-|--|-5b-4b-2b-0--|------------------------------|
------|-2--2--2--2--2---2---2-|--|-2--2--2--2--|------------------------------|
------|-----------------------|--|-------------|------------------------------|
------|-----------------------|--|-------------|------------------------------|
------|-----------------------|--|-------------|------------------------------|
        Pluck all

------|-x--x----|--|----------------------------------------------------------|
------|-5--5----|--|----------------------------------------------------------|
------|-4--4----|--|----------------------------------------------------------|
------|---------|--|----------------------------------------------------------|
------|---------|--|----------------------------------------------------------|
------|---------|--|----------------------------------------------------------|
       Interlude G1

------|-x---x---|--x---x--|--|------------------------------------------------|
------|-5---9---|--11--9--|--|------------------------------------------------|
------|-4---9---|--9---9--|--|------------------------------------------------|
------|-6---9---|--9---9--|--|------------------------------------------------|
------|-7---11--|--11--11-|--|------------------------------------------------|
------|-x---x---|--x---x--|--|------------------------------------------------|
        Interlude G2 Chords

------|-x-------|-------------------------------------------------------------|
------|-5-------|-------------------------------------------------------------|
------|-4-------|-------------------------------------------------------------|
------|-6-------|-------------------------------------------------------------|
------|-7-------|-------------------------------------------------------------|
------|-x-------|-------------------------------------------------------------|
       End





Silvergun Superman
Standard Tuning


----|-----------------------------|--|---------------------------------------|
----|-----------------------------|--|---------------------------------------|
----|-----------------------------|--|---------------------------------------|
----|-x-x--x----------------------|--|-x-x--x-----------x-x-x-x-x-x-x-x-x-x--|
----|-3-3--0--5-2-5-3b--5-2-5-3b--|--|-3-3--0--5-2-5-3b-0-2-2-3-3-3-3-2-2-0--|
----|-3-3--0----------------------|--|-3-3--0-----------0-2-2-3-3-3-3-2-2-0--|
     Intro

----|-------------------------------|-----------------------------------------|
----|-------------------------------|-----------------------------------------|
----|-------------------------------|-----------------------------------------|
----|-x---x-x-x---x-x-x-x---x-x--x--|-----------------------------------------|
----|-0---3-3-3---5-6-7-10--7-10-12-|-----------------------------------------|
----|-0---3-3-3---5-6-7-10--7-10-12-|-----------------------------------------|
     Verse

----|----------------------------|--------------------------------------------|
----|----------------------------|--------------------------------------------|
----|----------------------------|--------------------------------------------|
----|-x---x-x-x---x-x-x-x---x-x--|--------------------------------------------|
----|-0---3-3-3---5-6-7-6---3-3--|--------------------------------------------|
----|-0---3-3-3---5-6-7-6---3-3--|--------------------------------------------|


----|-x---x---x---x--x--x--x---x---x---x--|--|-------------------|------------|
----|-3---5---1---3--3--5--3---5---1---3--|--|-------------------|------------|
----|-2---7---0---2--3--5--2---7---0---2--|--|-------------------|------------|
----|-4---6---2---4--3--5--4---6---2---4--|--|-------------------|------------|
----|-5---7---3---5--1--3--5---7---3---5--|--|-------------------|------------|
----|-x---x---x---x--x--x--x---x---x---x--|--|-------------------|------------|
    Chorus Chords Strum                        Last Pt. of Intro

----|-----------------7--|--|-------------------------------------------------|
----|-------5---------6--|--|-------------------------------------------------|
----|-----5---5-----5-x--|--|-------------------------------------------------|
----|-6/7-------6/7------|--|-------------------------------------------------|
----|-5---------5--------|--|-------------------------------------------------|
----|-x---------x--------|--|-------------------------------------------------|






Big Empty
Standard Tuning



------|--------x--------------------------------------|--|--------------------|
------|----3---3--------------------------------------|--|--------------------|
------|----0---4---0-0h3-0-------x-5---5---0-0--------|--|--------------------|
------|------------0-0------0----x-2---2---0-0h2-0----|--|--------------------|
------|-----------------------3---------------------2-|--|--------------------|
------|-0---------------------------------------------|--|--------------------|
    Verse  P       p.m....                 p.m....

------|--------x-----------------------------------------|--------------------|
------|----3---3-----------------------------------------|--------------------|
------|----0---4---0-0h3-0-------5-5---5---5-5-5-5-5-----|--------------------|
------|------------0-0------0----2-2---2---2-2-2-2-2-5-5-|--------------------|
------|-----------------------3----------------------3-3-|--------------------|
------|-0--------------------------------------------x-x-|--------------------|
    Verse End

------|-x----x----x----|--|----------------x-------|--------------------------|
------|-3----5----8----|--|----------------0-------|--------------------------|
------|-0----0----0----|--|----------------2---1---|--------------------------|
------|-0----0----0----|--|-x--x-------x---0---0---|--------------------------|
------|-x----x----x----|--|-3--2--0----3---2-------|--------------------------|
------|-3----5----8----|--|-3--3----1--1---x-------|--------------------------|
       Chorus Chords Strum                 A

------|----------------x--x-----x---x--x--x---x-|--|--------------------------|
------|----------------0--0-----0---0--0--0---0-|--|--------------------------|
------|----------------2--1-----1---1--1--1---1-|--|--------------------------|
------|-x--x-------x--------0-----0---------0---|--|--------------------------|
------|-3--2--0----3--------2-----2---------2---|--|--------------------------|
------|-3--3----1--1--------x-----x---------x---|--|--------------------------|
      Interlude

------|----------------x----|-------------------------------------------------|
------|----------------0----|-------------------------------------------------|
------|----------------2----|-------------------------------------------------|
------|-x--x-------x---0----|-------------------------------------------------|
------|-3--2--0----3---2----|-------------------------------------------------|
------|-3--3----1--1---x----|-------------------------------------------------|
      Interlude End    A

------|-------------------|--|---------------|-------------------|--|---------|
------|-------------------|--|-----5---------|-------------------|--|---------|
------|-6-7-6----------6--|3x|-6-7---7-6-7---|-6-7-6----------6--|--|---------|
------|-------5------5----|--|---------------|-------5------5----|4x|---------|
------|---------7--7------|--|---------------|---------7--7------|--|---------|
------|-------------------|--|---------------|-------------------|--|---------|
      Bridge




Unglued
Standard Tuning

------|------------------|--|-------------------------------------------------|
------|------------------|--|-------------------------------------------------|
------|------------------|--|-------------------------------------------------|
------|------------------|--|-------------------------------------------------|
------|------------------|--|-------------------------------------------------|
------|-0-0-0-0-0-0-10br-|--|-------------------------------------------------|
      Intro

------|----------------|--|-------------|--|---------------|------------------|
------|----------------|--|-------------|--|---------------|------------------|
------|----------------|--|-------------|--|---------------|------------------|
------|-x-x-x-x-x------|--|-x-x-x-x-x---|--|-x-x-x-x-------|------------------|
------|-2-2-5-2-5------|--|-2-2-0-2-2---|--|-2-2-0-2-/19\--|------------------|
------|-0-0-0-0-0-10br-|--|-0-0-0-0-0---|--|-0-0-0-0-------|------------------|
      Intro/Verse

------|-x---x---x---x---|--|-------------|------------------------------------|
------|-0---1---2---1---|--|-------------|------------------------------------|
------|-1---0---2---0---|--|-------------|------------------------------------|
------|-x---2---2---2---|--|-7---7---2---|------------------------------------|
------|-2---3---0---3---|--|-5---4---3---|------------------------------------|
------|-0---x---x---x---|--|-x---x---x---|------------------------------------|
       Chorus Chords        End Chords






Army Ants
Standard Tuning


------|-12--|--------------------------|--|----|------------------------------|
------|-x---|--------------------------|--|----|------------------------------|
------|-14--|-14---13---17---16---15---|--|-14-|------------------------------|
------|-12--|-12---12---16---15---14---|--|-12-|------------------------------|
------|-0---|--------------------------|--|----|------------------------------|
------|-x---|--------------------------|--|----|------------------------------|
        Intro Chords Strum

------|-----------------------------------------------------------------------|
------|-----------------------------------------------------------------------|
------|-7-7-7-7-7--7-7-----------------10-10-10-10-10--10-10------------------|
------|-7-7-7-7-7--7-7-x-x-x-x-x-x-x-x-10-10-10-10-10--10-10-x--x--x--x--x----|
------|----------------7-7-7-7-9-9-9-9-----------------------10-10-10-10-10---|
------|----------------5-5-5-5-7-7-7-7-----------------------8--8--8--8--8----|
       Intro/Chorus

----------|-------------------------------------------------------------------|
----------|-------------------------------------------------------------------|
----------|-------------------------------------------------------------------|
-x--x--x--|-------------------------------------------------------------------|
-10-10-10-|-------------------------------------------------------------------|
-8--8--8--|-------------------------------------------------------------------|


------|-x----------|--|-------------------------------------------------------|
------|-2----------|--|-------------------------------------------------------|
------|-2----------|--|-------------------------------------------------------|
------|-2----------|--|-------------------------------------------------------|
------|-0----------|--|-------------------------------------------------------|
------|-x----------|--|-------------------------------------------------------|
        Verse Chord

------|------------------|--|---------------------------------|--------|------|
------|------------------|--|---------------------------------|--------|------|
------|-8-8-8-8----------|--|-7-7-7-7-7-7-7-7-7-7-7-7-7-7-7-7-|-7------|------|
------|-8-8-8-8-x--x--x--|--|-7-7-7-7-7-7-7-7-7-7-7-7-7-7-7-7-|-7------|------|
------|---------7--7--7--|--|---------------------------------|--------|------|
------|---------5--5--5--|--|---------------------------------|--------|------|
       Bridge                 1st end                          2nd end

------|-------|---------------------------------------------------------------|
------|-------|---------------------------------------------------------------|
------|-------|---------------------------------------------------------------|
------|-1-----|---------------------------------------------------------------|
------|-1-----|---------------------------------------------------------------|
------|-x-----|---------------------------------------------------------------|
       End




Kitchenware & Candybars
Standard Tuning


------|---------------------------------|--|----------------------------------|
------|---------------------------------|--|----------------------------------|
------|---------------------------------|--|----------------------------------|
------|-----9---9-------9---9-------9---|--|----------------------------------|
------|-----10--10------10--10------9---|--|----------------------------------|
------|-0-0---------0-0---------0-0-----|--|----------------------------------|
      Verse P   P       P   P       P

------|---------------------|--|----------------------|-----------------------|
------|---------------------|--|----------------------|-----------------------|
------|------------------7\-|--|----------------------|-----------------------|
------|-2---2---5--x--5--7\-|--|-2---2---5--x---------|-----------------------|
------|-3---3---5--3--5-----|--|-3---3---5--3---------|-----------------------|
------|-x---x---x--3--x-----|--|-x---x---x--3--3-3br\-|-----------------------|
       Chorus

------|-x--------|------------------------------------------------------------|
------|-2--------|------------------------------------------------------------|
------|-2--------|------------------------------------------------------------|
------|-2--------|------------------------------------------------------------|
------|-0--------|------------------------------------------------------------|
------|-x--------|------------------------------------------------------------|
      Interlude chord
Добавлено: 31.07.2012
Другие материалы по этой песне:
  • Аккорды и текст

Страница создана 31.07.2012
http://primanota.ru/stone-temple-pilots/purple-chords.htm
Привет, Гость.
Предлагаем пройти революционный курс по гитаре.
Подарок от PrimaNota.Ru, забирай!