PrimaNota.ru - самый крупный в мире бесплатный архив песенных текстов, аккордов, табулатур и нот


Stone Temple Pilots - Long Way Home - текст песни, таба, видео

Регистрация Запомнить меня
Войти через:  Facebook Google Twitter Vk Yandex Mail.ru

Stone Temple Pilots - Long Way Home - текст песни, таба, видео

Печатать
Просмотров: 106
Авторы музыки: Scott Weiland, Dean DeLeo

Stone Temple Pilots - "Long Way Home"
From "Shangri-Laa De Da" Album
Standard tuning
Tabbed by jjhand

Enjoy and please rate my tabs so others will check them out too! 

Intro/Carry-over Chords (2 beats):
e|-----------------|
B|-----------------|
G|---------3-------|
D|-2-------3-------|
A|-2-------1-------|
E|-0---------------|

Verse: play 2x
e|-1---------1--1----1---------|-1--1------------------|
B|-0---------0--0----0---------|-0--0------------------|
G|-0---------0--0----0---------|-0--0------------------|
D|-0----x-x--0--0----0----x-x--|-0--0--x-x-------------|
A|-2----x-x--2--2----2----x-x--|-2--2--x-x-------------|
E|-3----x-x--3--3----3----x-x--|-3--3--x-x--2b3r2b3~~--|

e|-2---------2--2----2---------|-2--2-----2-2--2-------|
B|-2---------2--2----2---------|-2--2-----2-2--2-------|
G|-3---------3--3----3---------|-3--3-----3-3--3-------|
D|-4----x-x--4--4----4----x-x--|-4--4--x--4-4--4______-|
A|-4----x-x--4--4----4----x-x--|-4--4--x--4-4--4______-|
E|-2----x-x--2--2----2----x-x--|-2--2--x--2-2--2______-|

Repeat Intro and Verse

Chorus
e|---------------------|---------------------------|
B|---------------------|------6--6-----------------|
G|-----7--7-----7--7-7-|------7--7-------------9---|
D|-----7--7-----7--7-7-|-8----8--8----10---10--10--|
A|-0---0--0--9---------|-8----8--8----10---10--10--|
E|-----------7---------|-6----6--6----8----8---8---|

  w/ chorus
e|--------------2-0---|---1-0----------------|
B|------------------3-|-------3--------------|
G|---6b7-6~~----------|---------------0---0--|
D|--------------------|----------------------|
A|-0----------2-------|-1-------2b3r2b3r2b3--|
E|--------------------|----------------------|

let all ring:
e|---------------------------|-----------------------|
B|-----2-----3----5---7---9--|-----10-----12-----14--|
G|-0-----0------0---0---0----|---0------0------0-----|
D|-2-----2/4---/6--/7--/9----|-/11----/13----/14-----|
A|---------------------------|-----------------------|
E|---------------------------|-----------------------|


Play intro as before, then play verse 2x

In second time through verse, Guitar 2 starts playing 
this before chorus 2:
e|-----------3-----------3-|-----------3-----------3-|
B|-6-3-----6---6-3-----6---|-6-3-----6---6-3-----6---|
G|-----4-----------4-------|-----4-----------4-------|
D|-------------------------|-------------------------|
A|-------------------------|-------------------------|
E|-------------------------|-------------------------|

e|-----------2-----------2-|-----------2-------------|
B|-5-2-----5---5-2-----5---|-5-2-----5---5-2---------|
G|-----3-----------3-------|-----3-----------3-------|
D|-------------------------|-------------------------|
A|-------------------------|-------------------------|
E|-------------------------|-------------------------|


Chorus 2: Play Chorus riff again, but play each line twice this time,
except the last line (ascending arpeggio riff).

Interlude       play these bars 3x
e|-----------||---------------------------|---------------------------|
B|-----------||-6----6--6-6--6------------|-5----5---5-5--------------|
G|-----------||-7----7--7-7--7------------|-7----7---7-6--------------|
D|-----------||-6----6--6-6--6--11-10-9-8-|-7----7---7-7--------------|
A|-----------||-8----8--8-8--8--11-10-9-8-|-7----7---7-7--------------|
E|-1-2-3-4-5-||-6----6--6-6--6------------|-5----5---5-5----1-2-3-4-5-|

Interlude Ending (then go right into solo)
e|---------------------------|------------------------|----------------|
B|-6----6--6-6--6------------|-5----------------------|------------5---|
G|-7----7--7-7--7------------|-7------7----8-----10p8-|---7----7-----7-|
D|-6----6--6-6--6--11-10-9-8-|-7----------------------|----------------|
A|-8----8--8-8--8--11-10-9-8-|-7----7----9-----9------|-7----7----7----|
E|-6----6--6-6--6------------|-5----------------------|----------------|


Solo (with Guitar 1 playing Verse Riff repeatedly)
e|-------------|--------------|------------------------------|
B|-------------|----------8---|----------------12-----12-----|
G|-----9-------|-------7------|-14b16r14---------12-----12---|
D|---8---8---8-|-9~-----------|--------------------12-----12-|
A|-7-------7---|--------------|------------------------------|
E|-------------|--------------|------------------------------|

e|-----------------------------|--------------------------------------------|
B|--11-------14-17b19---17--15-|-14-----------------------------------------|
G|---------15------------------|-16b18_____r16-14------------14-------------|
D|11----/16--------------------|-----------------16------14----16~----------|
A|-----------------------------|--------------------14h16--16------16-14-12-|
E|-----------------------------|--------------------------------------------|

e|-------------------------------------------|
B|-------------------------------------15b17-|
G|-------------14b16-14~---------------------|
D|-------------------------------------------|
A|-12b14-12~---------------12b14-12~---------|
E|-------------------------------------------|

e|-----------------------------------------------|
B|-15p14p12-14~-------15p14p12-14-12-14-12-14-12-|
G|-----------------------------------------------|
D|-----------------------------------------------|
A|-----------------------------------------------|
E|-----------------------------------------------|

e|-------------14------------------------------------------|
B|-------17------------------------------------------------|
G|-15b16____b16____16r15---------------14------------------|
D|---------------------16~-------14h16---16p14-------------|
A|--------------------------14h16-------------16p14\12~----|
E|---------------------------------------------------------|

e|---------------------------------------------|
B|---------------------------------------------|
G|---------------------------------------------|
D|---------------------------------------------|
A|-14p12-14-14b15~~~---14b15r14-12----12----12-|
E|---------------------------------14----14----|

e|-15-----------15----15-------------------------|
B|-18b20---18---18b20-18b20r18-15-15-------------|
G|--------------------------------17b19r17-p15---|
D|--------------------------------------------17-|
A|-----------------------------------------------|
E|-----------------------------------------------|

e|----------18----15--------------------------------------|
B|-----------------------18-------------------------------|
G|-17b19______b19____b19----17b19r17-15----15----15-17b19-|
D|--------------------------------------17----17----------|
A|--------------------------------------------------------|
E|--------------------------------------------------------|

e|----------------------------------------|
B|----------12----11~------17----14~~~~---|
G|-14~~-----------------------------------|
D|-------/12---\11~-----/17---\14~~~~-----|
A|----------------------------------------|
E|----------------------------------------|

e|------12------10~--------12------10~--------12------10-|
B|-12/14---14\12--~---12/14---14\12--~---12/14---14\12---|
G|-------------------------------------------------------|
D|-------------------------------------------------------|
A|-------------------------------------------------------|
E|-------------------------------------------------------|

e|------12------10~----------------------------------|
B|-12/14---12\10--~-12b14r12-10-12-12b14r12-10-12-10-|
G|---------------------------------------------------|
D|---------------------------------------------------|
A|---------------------------------------------------|
E|---------------------------------------------------|

e|-------12b14--12-9-------------------------------------------|----|
B|-10/11-------------9-------9---------------------------------|----|
G|---------------------11b13---11-9----9-----------------------|----|
D|----------------------------------11---11-9----10-9-7-7--9-7-|----|
A|--------------------------------------------11-------9-9-----|-9~-|
E|-------------------------------------------------------------|----|

fade out

see video of solo at:
http://www.youtube.com/watch?v=yuXsT2q7YTI&feature=related
Добавлено: 06.03.2012
Другие материалы по этой песне:

Страница создана 06.03.2012
http://primanota.ru/stone-temple-pilots/long-way-home-chords.htm
Привет, Гость.
Предлагаем пройти революционный курс по гитаре.
Подарок от PrimaNota.Ru, забирай!