PrimaNota.ru - самый крупный в мире бесплатный архив песенных текстов, аккордов, табулатур и нот


Stone Temple Pilots - Heed the water whisperer - таба, видео

Регистрация Запомнить меня
Войти через:  Facebook Google Twitter Vk Yandex Mail.ru

Stone Temple Pilots - Heed the water whisperer - таба, видео

Печатать
Просмотров: 72


Title: Heed The Water Whisperer
Artist: Stone Temple Pilots
Album: Unreleased Song

Tuning: Standard

Tabbed by: Quetzalcoatl (goldenplates@gmail.com)

*********************************************************************


Intro Riff
                                play 4 times
E |----------------------------------------||
B |----4------4-4----4--4------4-4----4----||
G |----3------3-3----3--3------3-3----3----||
D |----5------5-5----5--5------5-5----5----||
A |----3-------------3---------------------||
E |---------3----------------3------3------||


These are the chords played in the chorus.  It's easy enough to pick up the
rhythm by listening to the song.

E |--------------3----3----1----3----3----||
B |----4----6----3----4----1----3----4----||
G |----3----5----3----3----1----3----3----||
D |----5----x----5----5----3----5----5----||
A |----3----5----5----3----3----5----3----||
E |--------------3---------1----3---------||


This chord is strummed after the second and third chorus.

E |----3----||
B |----4----||
G |----3----||
D |----5----||
A |----3----||
E |---------||


That's basically the entire song.


Добавлено: 02.02.2014
Другие материалы по этой песне:
  • Аккорды и текст

Страница создана 02.02.2014
http://primanota.ru/stone-temple-pilots/heed-the-water-whisperer-chords.htm
Привет, Гость.
Предлагаем пройти революционный курс по гитаре.
Подарок от PrimaNota.Ru, забирай!