PrimaNota.ru - самый крупный в мире бесплатный архив песенных текстов, аккордов, табулатур и нот


Stone Temple Pilots - Down - аккорды и текст, таба, бас-таба, драм-таба, видео

Регистрация Запомнить меня
Войти через:  Facebook Google Twitter Vk Yandex Mail.ru

Stone Temple Pilots - Down - аккорды и текст, таба, бас-таба, драм-таба, видео

Печатать
Просмотров: 271
Авторы музыки: Robert DeLeo
Авторы текста: Scott Weiland
Down
Stone Temple Pilots
		   t. See http://www..net/faq/ for more information.                     #
#-----------------------------------------------------------------------------#


Enjoy, this is a cool song.  Listen to the song to get the rhythm down
right, and make corrections if necessary.

Stone Temple Pilots - "Down"
From the Album No. 4

Dropped D Tuning
(Lowest E string tuned down to D)
Heavy Distortion throughout

\=slide up
/=slide down
h=hammer on
x=mute

RIFF NUMBER 1
e|----------------
B|----------------
G|----------------
D|---3--------3---
A|---3--------3---
D|---3--00--x-3-00

RIFF NUMBER 1 B
e|-----------------------
B|-----------------------
G|----------------------5
D|---3--------3------3h5-
A|---3--------3----------
D|---3--00--x-3-00-------


RIFF NUMBER 2
e|--------------------
B|--------------------
G|--------------------
D|--------------------
A|------03---0--------
D|030--3------530--000

(Add Flange effects if you have it)
RIFF NUMBER 3
e|------------------------------------
B|------------------------------------
G|------------------------------------
D|7--/6--/5--/3--/2---5777--5777--5777
A|7--/6--/5--/3--/2---3555--3555--3555
D|7--/6--/5--/3--/2---xxxx--xxxx--xxxx

RIFF NUMBER 3 B
e|------------------------------
B|------------------------------
G|------------------------------
D|7--/6--/5--/3--/2---3(HOLD)---
A|7--/6--/5--/3--/2---3(HOLD)---
D|7--/6--/5--/3--/2---3(HOLD)---

INTRO:
RIFF #1 X 4
RIFF #2 X 4

VERSE:
(Pleased to meet you... Nice to know me...)

RIFF #1 X 4
then :
(sliding thing)
e|1/---8\1
B|1/---8\1
G|1/---8\1
D|1/---8\1
A|1/---8\1
E|1/---8\1

RIFF #1B X 3
RIFF #1 X1

CHORUS :
(Hey, I've been waiting for my Sunday girl)

RIFF #2 X 4

Verse

Chorus

Part After 2nd Chorus:
(Will You Follow Me...)

RIFF # 3 X 2
RIFF # 3 B X 1

JUST IMPROVISE INSTRUMENTAL

After Instrumental :

RIFF # 1 B X 3
RIFF # 1 X 1

Chorus X 2

Verse


Created by :

==============
~~David Ogles~~
==============     
Добавлено: 26.06.2013
Другие материалы по этой песне:

Страница создана 14.03.2012
http://primanota.ru/stone-temple-pilots/down-chords.htm
Привет, Гость.
Предлагаем пройти революционный курс по гитаре.
Подарок от PrimaNota.Ru, забирай!