PrimaNota.ru - самый крупный в мире бесплатный архив песенных текстов, аккордов, табулатур и нот


Stone Temple Pilots - Black Heart - таба, видео

Регистрация Запомнить меня
Войти через:  Facebook Google Twitter Vk Yandex Mail.ru

Stone Temple Pilots - Black Heart - таба, видео

Печатать
Просмотров: 180
Уроки эстрадного вокала в Санкт-Петербурге
Stone Temple Pilots - Black Heart
From the 'High Rise' EP (2013)
Open G Tuning
tabbed by jjhand


'Black Heart' bears similarity to some of Dean's open G guitar riffs on their 
last album but sounds fresh with Chester's vocals and has a nice original solo. 
Please rate & comment.

Verse

    play 3x
d|--------------------------|-------------------------|------------------------|
B|--------------------------|-------------------------|------------------------|
G|--12--0-12----12--0-10-11-|-12--0-12----12--0-10-11-|-12--0-12----12--0------|
D|--12--0-12----12--0-10-11-|-12--0-12----12--0-10-11-|-12--0-12----12--0------|
G|--12--0-12----12--0-10-11-|-12--0-12----12--0-10-11-|-12--0-12----12--0--7-9-|
D|--------------------------|-------------------------|------------------------|

|-------------------------|
|-------------------------|
|-------------------------|
|--10----10---------------|
|--10----9-----7--5--3--0-|
|-------------------------|




PreChorus
|--------3--5-----|--------------|--------3--5-----|--------------|
|-----3--------3--|-(3)----------|-----3--------3--|-(3)----------|
|-4h5----0--0--0--|-(0)----------|-4h5----0--0--3--|-(3)----------|
|-----------------|--------------|-----------------|--------------|
|-----------------|--------------|-----------------|--------------|
|-----------------|--------------|-----------------|--------------|

|--------3--5-----|
|-----3-----------|
|-4h5----0--0-----|
|-----------------|
|-----------------|
|-----------------|



Chorus
   Eb                                            Bb        sus4
|-----------------------|----------------------|----------------------|
|-----------------------|----------------------|----------------------|
|-----------------------|----------------------|----------------------|
|--8----8----8--8--8--8-|-8----8----8--8--8--8-|----------------------|
|--8----8----8--7--8--7-|-8----8----8--7--8--7-|-7----7----8--7--8--7-|
|-----------------------|----------------------|-8----8----8--8--8--8-|

|-----------------------|----------------------|----------------------|
|-----------------------|----------------------|----------------------|
|-----------------------|----------------------|----------------------|
|-----------------------|-8----8----8--8--8--8-|-8----8----8--8--8--8-|
|--7----7----8--7--8--7-|-8----8----8--7--8--7-|-8----8----8--7--8--7-|
|--8----8----8--8--8--8-|----------------------|----------------------|

|-----------3--5--------|
|-----0--3--------3-----|
|--0--------------------|  let ring
|--0--------------------|
|--0--------------------|
|-----------------------|


Play Verse Again

Play Prechorus and Chorus again


Break
|----------|-----------|----------|----------|---------|---------|-------3-5---|
|-0------1-|-0---------|--------1-|-0--------|-------1-|-0-------|---0-3-------|
|-0------0-|-0---------|-----0--0-|-0--------|-----0-0-|-0-------|-0-----------|
|-0--------|-0---------|-3--------|-0--------|-2-------|-0-------|-0-----------|
|-0--------|-0---------|-0--------|-0--------|-0-------|-0-------|-0-----------|
|----------|-----------|----------|----------|---------|---------|-------------|


Solo
|--------------------|-------0---0-----|-0---0-----------|----------------|
|-6------6-----6--6--|-6---------------|-/8--6-----------|---8---6---5\3~~|
|-8b10---8b10--8b-8b-|-8br10-7-5-4h5-7-|-----------x\----|--0---0---0-----|
|--------------------|-----------------|-----------------|-7---5---3------|
|--------------------|-----------------|-----------------|----------------|
|--------------------|-----------------|-----------------|----------------|

|-------------------------------------------|-----------------------------|
|-10h12h13p12-15p12h13p12-12p10-13p10-12----|-----------------------------|
|---------------------------------------10~-|-10h12p10----10--10----------|
|-------------------------------------------|---------12----12--12-10-9~--|
|-------------------------------------------|-----------------------------|
|-------------------------------------------|-----------------------------|

|-12-----12-12-12-12-12-12-|-----------------------|
|-13b15--13-12-x--x--x--12-|-12\10-8---------------|
|--------------14-12-14----|---------10b12-10b12~--|
|--------------------------|-----------------------|
|--------------------------|-----------------------|
|--------------------------|-----------------------|


Play Chorus Again

Ending
|--------3--5-----|--------------|--------3--5-----|--------------|
|-----3--------3--|-(3)----------|-----3--------0--|-(0)----------|
|-4h5----0--0--3--|-(3)----------|-4h5----0--0--0--|-(0)----------|
|-----------------|--------------|--------------0--|-(0)----------|
|-----------------|--------------|--------------0--|-(0)----------|
|-----------------|--------------|-----------------|--------------|


KEY
************************************

| /   slide up
| \   slide down
| h   hammer-on
| p   pull-off
| ~   vibrato
| +   harmonic
| x   Mute note
| ()  hold note from previous bar
| b   Bend
| pb  Pre-bend
| r   release bend
| br  Bend then release

************************************
Добавлено: 01.12.2013
Другие материалы по этой песне:
  • Аккорды и текст

Страница создана 01.12.2013
http://primanota.ru/stone-temple-pilots/black-heart-chords.htm
Привет, Гость.
Предлагаем пройти революционный курс по гитаре.
Подарок от PrimaNota.Ru, забирай!