PrimaNota.ru - самый крупный в мире бесплатный архив песенных текстов, аккордов, табулатур и нот


Stone Sour - Bother Official - таба, видео

Регистрация Запомнить меня
Войти через:  Facebook Google Twitter Vk Yandex Mail.ru

Stone Sour - Bother Official - таба, видео

Печатать
Просмотров: 219
Bother-Stone Sour
Stone Sour

Eb:
Eb Ab Db Gb Bb Eb

Intro:

e------------------------------7-------------------------
b-7h8-----7----7h8p7-----------8------7-----7h8p7--------
g-7-------7----------9-7-------7------7------------9-7---
d-7h9-----7---------------9-----------7------------------
a-7-------7---------------7-----------7------------------
e--------------------------------------------------------

e------7------------------------------7------------------
b------8------7-----7h8p7-------------8----7-------------
g------7------7------------9-7--------7----7-------------
d-9-----------7------------------9----9----7-------------
a-7-----------7------------------7---------7-------------
e--------------------------------------------------------

1st & 3rd Verses:

e-----------------------------------------------------------------
b-7h8---7----7h8---7------------------------8----7--7h8p7---------
g-7-----7----7-----7----------7---7-7--x-x--7----7--------9p7---7-
d-7h9---7----7h9---7-----7--7-7---7-7--x-x--9----7------------9-7-
a-7-----7----7-----7-----5--5-5---5-5--x-x--7----7------------7---
e-----------------------------------------------------------------

e-----------------------------------------------------------------
b-------7----7h8---7-------------------8-8-8---8------------------
g-9-----7----7-----7-----7--7-7---7-7--7-7-7---7-x-x-7----7--7----
d-9-----7----7h9---7-----7--7-7---7-7--5-5-5---5-x-x-7----7--7--x-
a-7-----7----7-----7-----5--5-5---5-5--5-5-5---5-x-x-9----9--9--x-
e-0---------------------------------------------------------------

Chorus:

e-----------------------------------------------------------------
b------------7h8---7--------8--------------------------------8----
g------------7-----7--------7-----x-8-8---8-x-8-8----8---8------9-
d-9----------7h9---7--------9-----x-9-9---9-x-9-9----9---9------9-
a-7----------7-----7--------7-----x-9-9---9-x-9-9----9---9------7-
e-----------------10--------------x-7-7---7-x-7-7----7---7--------

e-----------------------------------------------------------------
b------------7h8---7----------------------------------------------
g-9-------9--7-----7-------5----5--5-5--------7----7-7--7--7------
d-9-------9--7h9---7-------5----5--5-5--------7----7-7--7--7------
a-7-------7--7-----7-------3----3--3-3---5-5--5----5-5--5--5---7--
e-----------------10----------------------------------------------

e------------------------------7-------------------------
b-7h8-----7----7h8p7-----------8------7-----7h8p7--------
g-7-------7----------9-7-------7------7------------9-7---
d-7h9-----7---------------9-----------7------------------
a-7-------7---------------7-----------7------------------
e--------10---------------8----------10------------------

e------7-------------------------------------------------
b------8------7-----7h8p7------------------7-------------
g------7------7------------9-7-------------7-------------
d-9-----------7------------------9---------7-------------
a-7-----------7------------------7---------7-------------
e------------10------------------7--------10-------------

2nd Verse:

e-----------------------------------------------------------------
b-7h8---7----7h8---7------------------------8----7--7h8p7---------
g-7-----7----7-----7----------7---7-7--x-x--7----7--------9p7---7-
d-7h9---7----7h9---7-----7--7-7---7-7--x-x--9----7------------9-7-
a-7-----7----7-----7-----5--5-5---5-5--x-x--7----7------------7---
e-----------------------------------------------------------------

e-----------------------------------------------------------------
b-------7----7h8---7-------------------8-8-8---8------------------
g-9-----7----7-----7-----7--7-7---7-7--7-7-7---7-x-x-7----7-------
d-9-----7----7h9---7-----7--7-7---7-7--5-5-5---5-x-x-7----7--7/9--
a-7-----7----7-----7-----5--5-5---5-5--5-5-5---5-x-x-5----5--5/7--
e-0---------------------------------------------------------------

Pre Chorus: 

e--------------------------------------------------------
b-8----8---8--8-8---8---8--------------------------------
g-7----7---7--7-7---7---7--x-8--8---8-x---8--8---8---x-x-
d-9----9---9--9-9---9---9--x-9--9---9-x---9--9---9---x-x-
a-7----7---7--7-7---7---7--x-9--9---9-x---9--9---9---x-x-
e----------------------------7--7---7-x---7--7---7---x-x-

e--------------------------------------------------------
b--------------------------------------------------------
g-5----5---5--5-5---5--5--7-7-7---7-x-7--7----7----------
d-5----5---5--5-5---5--5--7-7-7---7-x-7--7----7---9-9----
a-3----3---3--3-3---3--3--5-5-5---5-x-5--5----5---7-7----
e--------------------------------------------------------

Solo:

gtr. 1

e-----------------------------------------------------------------
b-------10p8p7-8~~~~-----7h8p7~~~~--------------------------------
g---------------------7------------9~~~~~~-p7--9~~~~~~~-----7-----
d-9-----------------------------------------------------7h9---7/9-
a-7---------------------------------------------------------------
e-----------------------------------------------------------------

gtr. 2

e-----------------------------------------------------------------
b--------------------------------------------------8--------------
g--------------------------------------------------7--------------
d--------------------------------------------------9--------------
a------------------------------------5h7---7/9p7---7--------------
e------------------------------5h7-----------------0--------------

gtr. 1

e-------------------------------10--------------------------------
b-------------------------------10br-----8-10p8\3\0---10p8--------
g------------------------7h9~~~~---------------------------9--9~~~
d-9~~~~~~~~------5h7-7/9------------------------------------------
a--------------5--------------------------------------------------
e-----------------------------------------------------------------

gtr. 2

e-7----------------------------7----------------------------------
b-8----------------------------8----------------------------------
g-7----------------------------7----------------------------------
d-9----------------------------9----------------------------------
a-7------------5h7---7/9p7-----7-------------------------5h7--7/p-
e-0-------5h7------------------0------------------5h7-------------

gtr. 1

e-----------------------------------------------------------------
b-----------------------------------------------------------------
g-9~~~~~------7h9~~~~~-7h9~~~~~~~---------------------------------
d-----------------------------------------------------------------
a-----------------------------------------------------------------
e-----------------------------------------------------------------

gtr. 2

e--------7--------------------------------------------------------
b--------8--------------------------------------------------------
g--------7--------------------------------------------------------
d--------9--------------------------------------------------------
a-7------7--------------------------------------------------------
e-----------------------------------------------------------------

Outro:

e-----------------------------------------------------------------
b-8---8---8---8----7-------7h8------------------------------------
g-7---7---7---7----7-------7-------8---8-8-8--8----8----8-8-------
d-9---9---9---9----7-------7h9-----9---9-9-9--9----9----9-9--9-9--
a-7---7---7---7----5-------7-------9---9-9-9--9----9----9-9--7-7--
e-0---0---0---0----0-------0-------7---7-7-7--7----7----7-7-------

e-----------------------------------------------------------------
b-7h8-7h8-7h8-7h8---7h8----7-7----7-7-----------------------7-----
g-7---7---7---7-----7------7-7----7-7---------5---5-5---5-7-7-----
d-9---9---9---7h9-9-7h9-9--7-7----7-7---9\5---5---5-5---5-7-7-----
a-7---7---7---7---7-7---7--5-5----5-5---7\3---3---3-3---3-5-5-----
e--------------------------0--------------------------------0-----

e------------------------------7-------------------------
b-7h8-----7----7h8p7-----------8------7-----7h8p7--------
g-7-------7----------9-7-------7------7------------9-7---
d-7h9-----7---------------9-----------7------------------
a-7-------7---------------7-----------7------------------
e--------10---------------8----------10------------------

e------7-----------------------------7------------------7---------
b------8------7-----7h8p7------------8-----7-----------8----------
g------7------7------------9-7-------7-----7----------7-----------
d-9-----------7------------------9---------7---------9------------
a-7-----------7------------------7---------7--------7-------------
e------------10---------------------------------------------------
Добавлено: 04.06.2013
Другие материалы по этой песне:
  • Аккорды и текст

Страница создана 04.06.2013
http://primanota.ru/stone-sour/bother-official-chords.htm
Привет, Гость.
Предлагаем пройти революционный курс по гитаре.
Подарок от PrimaNota.Ru, забирай!