PrimaNota.ru - самый крупный в мире бесплатный архив песенных текстов, аккордов, табулатур и нот


Stone Roses - One Love - текст песни, таба, бас-таба, видео

Регистрация Запомнить меня
Войти через:  Facebook Google Twitter Vk Yandex Mail.ru

Stone Roses - One Love - текст песни, таба, бас-таба, видео

Печатать
Просмотров: 123
Уроки эстрадного вокала в Санкт-Петербурге
Авторы музыки: Ian Brown, John Squire

Artist: The Stone Roses. Song: One Love. Album: Turns Into Stone

INTRO
e-----7--------------------------------------------------------------------|
B--8--8----15---15---15---15---15------------------------------------------|
G-----7----14b--14b--14b--14b--14b--14-14p12-------12-14-12-------------2b-|
D-----7--------------------------------------14-14----------14-14-12-14----|
A-----7--------------------------------------------------------------------|
E--------------------------------------------------------------------------|

VERSE
e-----------------------------------------------------|
B--------------------------------2p0----2----2------0-|
G-------------2p0----------------2p0----2----2------0-|
D-----------2-----2----2--0-0-2-------2----2----2-2---|
A-----------------------------------------------2-2---|
E--0--0-0-0----------3--------------------------------|

e-----------------------------------------------------|
B-----------------------------------------------------|
G---------------------------------------------------0-|
D--------------2-----2-----0-----2--2-------------2---|
A--------------2-----4-----5-----4----0h2-0-----------|
E--0--0-0--3---0-----------------------------3b-0-----|

e-----------------------------------------------------|
B---------------------------------------------------3-|
G--2p0--------2b--2-2p0-------------------------------|
D------2----2-----------2-----2-x-x---2-x--2-2--0-0---|
A-----------------------------------2-2----4-4--0-0---|
E--------3b----------------3--------------------------|

e----------------------------------------------------------------------------|
B------3-----------------------------12--------------------------------------|
G--2b-----2--2p0----0------------14b----14p12----12--------------------------|
D----------------2-----2-----2----------------14----14p12-14-14/----------0--|
A----------------------------------------------------------------------2-----|
E-------------------------3---------------------------------------3--3-------|

e------------------------------------------------------|
B--------------------------12----12-----14p12----12-14-|
G--2p0-------------0-------12----12-----14p12-14-12-14-|
D------2---2-------0----2--12h14-----14-------14-------|
A--------------2---------------------------------------|
E--------3---0--------3--------------------------------|

e--12--------------------------------------------|
B---------12-----12-----12-----12----------------|
G-----14b----14b----14b----14b----14p12----------|
D---------------------------------------14p12-14-|
A------------------------------------------------|
E------------------------------------------------|

e-------------------------------------------------|
B--x-x-x-x----------------------------------------|
G--x-x-x-x----------------------------------12----|
D--x-x-x-x----------------12-------12-12h14----14-|
A----------------10-12/14----12h14----------------|
E----------10h14----------------------------------|

PRE-CHORUS
e-----------------------------------------------------------|
B--14--14--14--x-14-12------------------14--14--14--x-14-12-|
G--14--14--14--x-14-12------------------14--14--14--x-14-12-|
D--------------------------2-5------------------------------|
A----------------------2h5-----5-7-5-7----------------------|
E-----------------------------------------------------------|

e-------------------------------------------------------|
B--5p3----3-0-2-------------------12--14--14--x--14--12-|
G------4--4-0-2--0-2p0-2p0--------12--14--14--x--14--12-|
D--------------------------2p0--------------------------|
A-------------------------------------------------------|
E-------------------------------------------------------|

e----------------------------------------------------------------------------|
B----------------------------------------------------------------------------|
G---------12---------------------------------------------------------------7-|
D---12-14----12-14-12-14-14-14-14-12-12--------------------------------------|
A14-------------------------------------14-14-12-12-10-----------------------|
E------------------------------------------------------12-7-7-5-5-5-3-3-5/7--|

e---------------------------------------------4-4-4-4-4-4-|
B-------------------------5-------5------5-5--5-5-5-5-5-5-|
G-------------------------4---4---6p4----4-4--4-4-4-4-4-4-|
D-----------------2--4/6----6---6-----6--6-6--------------|
A-------------2-5-----------------------------------------|
E--5-5-5-5--3---------------------------------------------|

CHORUS
e-----4-----------------0--------------------------------------------|
B-----5--------5-5-----------------------7p5---5-------0-------------|
G-----4--4-4p6---4----2----------------------6---6p4-----------------|
D--6----------------2------2-2h4--2---2--------------6---64-2-4-2----|
A-------------------0---------------4--------------------------------|
E--------------------------------------------------------------------|

e---------------------------------------------------------|
B------------------------------------2-----------2------4-|
G--------2-----2----1----------------2-----------2------4-|
D--2-------------------4----2--------2-----------2------4-|
A--0----------------------------0-----------------------2-|
E-------------------------------------------4-------------|

e------0--------0---------------0------------------|
B---------------------0-----2-----2--4--4----------|
G--2/4---2p1------1h2-------2--------4--4----------|
D------------2--------------2--------4--4------2-4-|
A------------------------0-----------2--2--2h4-----|
E--------------------------------------------------|

e---------------------------------------------------------|
B---------12----------------------------------------------|
G-----14b----14p12----12--------------------4--6----------|
D------------------14----14p12-14-14-----------------5b---|
A--2------------------------------------5h7------5h7----7-|
E---------------------------------------------------------|

BRIDGE
e----------------------------------------------------------|
B----10---10-10-10---------------5-----------2-------------|
G----9----9--9--9-----14--4--4h6-------------2-------------|
D----11---11-11-11/14-----4--------6-4-2-4---2------2----4-|
A--0----------------------2----------------0----2h4------2-|
E-----------------------------------------------------0--2-|

e----------------------------------------------------|
B--------------------10---10-10-10----9-9---9-9--9-9-|
G--------------------9----9--9--9-----9-9---9-9--9-9-|
D--------------------11---11-11-11----9-9---9-9--9-9-|
A--2h4-2----------0----------------------------------|
E--------4-2-0-2-------------------------------------|

e------------------------------------------------------|
B--7-7-x-x-x-x-7-x-x-9-x-7-7----2-2-2--4--4------------|
G--8-8-x-x-x-x-8-x-x-9-x-8-8----2-2-2--4--4------------|
D--9-9-x-x-x-x-9-x-x-9-x-9-9----2-2-2--4--4------2-4-4-|
A----------------------------0--0------2--2--2-4-------|
E------------------------------------------------------|

SOLO
e-------2----------------------------------------|
B---------5p2---2p0-2p0--------------------------|
G--2-4b-------4---------2---4-2--------2--4p2-4b-|
D-------------------------4-----4--4-4-----------|
A------------------------------------------------|
E------------------------------------------------|

e---------------2-2-2-2-2-------------------|
B---------------2-2-2-2-2--7-10-7-----7-7-7-|
G--2---2--------2-2-2-2-2---------9-9-------|
D----4---4-2-4------------------------------|
A-------------------------------------------|
E-------------------------------------------|

e------------9-9---------------------------------|
B-----10-12b-----12p10----10b-10----10b-10-------|
G--11------------------11--------11--------11-11-|
D------------------------------------------------|
A------------------------------------------------|
E------------------------------------------------|

e-----------2-2-2-2-2-2-2-2-2-----|
B-----------2-2-2-2-2-2-2-2-2-----|
G-----------2-2-2-2-2-2-2-2-2--4b-|
D-----------4-4-4-4-4-4-4-4-4-----|
A---------------------------------|
E--2-----2------------------------|

e--2--------------------------------------|
B----------------------------5-7-7-7--x-2-|
G----4-4-4-4p2-------------6----------x-2-|
D--------------4-4-x-x-x-x------------x-4-|
A-----------------------------------------|
E-----------------------------------------|

e------------------------------------------------------------12b-|
B-----10----10b-10b-10b-12p10--------------------------10--------|
G--11----11-------------------11---9-11-11-11-11----11----11-----|
D--------------------------------11------------------------------|
A----------------------------------------------------------------|
E----------------------------------------------------------------|

e--12-9----9----9-----9-----9----9------------------------------------|
B-------12---12---12b---12b---12----------------------------------x-x-|
G----------------------------------11----9-11-11-11-11-----9------x-x-|
D-------------------------------------11----------------11---11-9-x-x-|
A---------------------------------------------------------------------|
E---------------------------------------------------------------------|

e-----------------2-------------14-17-1412-14p12----12-----------------------|
Bx-x----2-----------------------------------------14----14p12-14/12-12p10----|
Gx-x--4---2-4-4b----4p2-4p2-----------------------------------------------11-|
Dx-x------------------------4-4----------------------------------------------|
A----------------------------------------------------------------------------|
E----------------------------------------------------------------------------|

e--14p12----12-------------------------------2----2-------|
B--------14----14p12-12b-10--------2----2----2----2-------|
G---------------------------11--4b---4b---4b---4b---4p2---|
D-------------------------------------------------------4-|
A---------------------------------------------------------|
E---------------------------------------------------------|

e------2--------------------------------------------|
B------2----------------------x--x-x----------------|
G--4-4---4p2-4p2--------------x--x-x--4p2-------2/4-|
D----------------4p2-4--------x--x-x------4----4----|
A---------------------------------------------------|
E---------------------------------------------------|

e--------------------------5-------------------|
B----------------------------7p5---5-----2-----|
G-----------------------6--------6---64---4----|
D--4-------2-4-2-4-2-4-------------------------|
A----------------------------------------------|
E----------------------------------------------|

e--------------------------------------------------------------------|
B-----------------2----2------------------------------------------10-|
G--2h4p2---2---4b---4b---4p2--------------9----9-------------9-11----|
D--------4---4---------------4-----7-9-11---11---119-7-9-11----------|
A------------------------------7-9-----------------------------------|
E--------------------------------------------------------------------|

e---------------------------------------------------------|
B---------------------------------------------------------|
G--11------------------------9--------9-11---------9---11-|
D---------9-------9-11----11---9-9-11---------9h11--------|
A--9---12---11-11------12------------------9--------------|
E---------------------------------------------------------|

e----------------------------------------------------------|
B----------------------------------------------------------|
G---------9--11p9h11--9h11-9----9--------------------------|
D----9h11--------------------11---11-9-11-9----9h11-9----9-|
A--9----------------------------------------12--------12---|
E----------------------------------------------------------|

e--------------------------------|
B--------------------------------|
G--------------------------------|
D--11-------9-11-------9-11p9h11-|
A-----9--12-------9-12-----------|
E--------------------------------|

ENJOY! Because Ian Brown loves you.
Добавлено: 23.08.2013
Другие материалы по этой песне:

Страница создана 12.05.2012
http://primanota.ru/stone-roses/one-love-chords.htm
Привет, Гость.
Предлагаем пройти революционный курс по гитаре.
Подарок от PrimaNota.Ru, забирай!