PrimaNota.ru - самый крупный в мире бесплатный архив песенных текстов, аккордов, табулатур и нот


Stone Roses - Love Spreads - текст песни, таба, бас-таба, видео

Регистрация Запомнить меня
Войти через:  Facebook Google Twitter Vk Yandex Mail.ru

Stone Roses - Love Spreads - текст песни, таба, бас-таба, видео

Печатать
Просмотров: 298
Уроки эстрадного вокала в Санкт-Петербурге
Авторы музыки: John Squire

From: piercec@ucs.orst.edu (Christopher Pierce)
Subject: TAB:  Love Spreads  by The Stone Roses

March 20, 1995
I don't have a slide, so this is how I play it just using my fingers.
It probably has errors in it, especially with all the trills, so if
you can fix it, please do.

note:
The Low E is tuned down to a D
|--5^W--| -> bend a whole step
|--3h5--| -> hammer on
|--5p3--| -> pull off
|--5/8--| -> slide


Love Spreads
----------------
by The Stone Roses
(from the album "Second Coming")


Intro
E|-------------------------------------------------------------------------
B|-------------------------------------------------------------------------
G|-------------------------------------------------------------------------
d|-------------------------------------------------------------------------
A|-------5-----5/8---5/8---5/8---5-------0---3-5---5/10---8---5---0-5------
D|-0---------0-----------------------0----------------------------------0--



---------------------------------------------------------------------------
---------------------------------------------------------------------------
----7-----------------------------------------7----------------------------
--7---7\----------------------0---0-------0--------------------------------
----------0-5/8---5/8---5/8-----3---5/8-----------0-3---5---8---5-8---5----
---------------------------------------------------------------------------



---------------------------------------------------------------------------
----------------------------------------------------------------10-----8---
--7-------------------------------------------------------------9------7---
--7-------------------------0-------5---5\--0--/5--/6--/7----/7-7---/5-5---
------0---5/8---5/8---5/8--------------------------------------------------
--------------------------------0------------------------------------------


Verse
--------------------------------------||-----------------------------------
8-------------------------------------||-----------------------------------
7-------------7-----------------------||*----------------------------------
5-------------7-----------------------||*-----------------------3---3h5p3--
----5/8---5-----0---3---5---8---5-8---||--5---0-3-5-0-5---0-3-5------------
--------------------------------------||-----------------------------------



---------------------------------------------------------------------------
---------------------------------------------------------------------------
---------------------------------------------------------------------------
p0---------------------5-7p5p0-5p3p0-----------------------3---3h5p3p0-----
---5---0-3-5-0-5---5-8---------------5---0-3-5-0-5---0-3-5-------------5---
---------------------------------------------------------------------------



---------------------------------------------------------------------------
---------------------------------------------------------------------------
---------------------------------------------------------------------------
--------------------------------------------------3---3h5p3p0--------------
--0-3-5-0-5---3-5-3-0-3-0---------3-5-0-5---0-3-5-------------5---0-3-5----
--------------------------5-0-0--------------------------------------------



---------------------------------------------------------------------------
---------------------------------------------------------------------------
---------------------------------------------------------------------------
----------5-7p5p0-5p3p0-----------------------3---3h5p3p0------------------
0-5---5-8---------------5---0-3-5-0-5---0-3-5-------------5---0-3-5-0-5----
---------------------------------------------------------------------------



---------------------------------------------------------------------------
---------------------------------------------------------------------------
----------------------------------------------------------------5----------
------3-----3---3-5-5-5-5-5-5-5---5-5-5-5-3-------5-5-5-3---5/7---7-5-3h5--
--5-------5---5-----------------------------5-3-----------5----------------
---------------------------------------------------------------------------



---------------------------------------------------------------------------
---------------------------------------------------------------------------
---------------------------------------------------------------------------
p3-----------------------------3---3h5p3-----------------------------------
---5-3---3-5---3-5---5---0-3-5-----------5-3---3-5-----3-5-----3-5---3-----
-------------0-----0-------------------------------0-------0---------------



---------------------------------------------------------------------------
---------------------------------------------------------------------------
----------------------------------------------------------5/7-5------------
----3-----3---3-5-5-5-5-5-5-5---5-5-5-5-3-------5-5-5-3---------7-5-3h5p3--
5-------5---5-----------------------------5-3-----------5------------------
---------------------------------------------------------------------------



---------------------------------------------------------------------------
---------------------------------------------------------------------------
---------------------------------------------------------------------------
---------------------------------------------------------------------5^W---
-5-3---3-5-----3-5---5---0-3-5---5h8p5-3-0-3-5-5-5-3-5-0-5-----3-0---------
-----------0-------0-------------------------------------------------------



---------------------------------------------------------------------------
---------------------------------------------------------------------------
-------------------------------------5-------------------------------------
--5^W--5-3---------5^W---5^W---3-5^W---5-3-3h5p3-------------3-------------
-----------5p3p0---------------------------------5-3-5---5-5---5---3-5-----
---------------------------------------------------------------------------



-----------------------------||
-----------------------------||
----------------------------*||
----------------7p5p0-5p3p0-*||
5-5---5-0-3-5----------------||
-----------------------------||


***************************************************************************
Transcriber: Christopher Pierce    (note: This is my rendition, and it's)
piercec@ucs.orst.edu  (      within your right to disagree.)
***************************************************************************
Добавлено: 09.05.2012
Другие материалы по этой песне:

Страница создана 18.03.2012
http://primanota.ru/stone-roses/love-spreads-chords.htm
Привет, Гость.
Предлагаем пройти революционный курс по гитаре.
Подарок от PrimaNota.Ru, забирай!