PrimaNota.ru - самый крупный в мире бесплатный архив песенных текстов, аккордов, табулатур и нот


Stone Roots - You Could Never Tell - таба, видео

Регистрация Запомнить меня
Войти через:  Facebook Google Twitter Vk Yandex Mail.ru

Stone Roots - You Could Never Tell - таба, видео

Печатать
Просмотров: 59
you could never tell


stone roots


TRANSCRIBED BY RUDY GUZMAN


guzman_84@hotmail.com



  tune 1 step down

                                               
eb:------------------------2-2---|
Bb:---2------3----2-2----3-3-3-3-|
Gb:---2----4-4--2-2-2----2-2-2-2-|
Db:-4-4----4-4--2-2-2--0-0-0-0-0-|
Ab:-4-4--0-2-2--0-0-0------------|
Eb:-2-2--------------------------|


    carnaval is coming to town...
eb:------------------------2-2---|
Bb:---2------3----2-2----3-3-3-3-|
Gb:---2----4-4--2-2-2----2-2-2-2-|
Db:-4-4----4-4--2-2-2--0-0-0-0-0-|
Ab:-4-4--0-2-2--0-0-0------------|
Eb:-2-2--------------------------|

                    pour man's pay...
eb:------------------------2-2-2-2-2-2-2-2-2-|
Bb:---2------3----2-2----3-3-3-3-3-3-3-3-3-3-|
Gb:---2----4-4--2-2-2----2-2-2-2-2-2-2-2-2-2-|
Db:-4-4----4-4--2-2-2--0-0-0-0-0-0-0-0-0-0-0-|
Ab:-4-4--0-2-2--0-0-0------------------------|
Eb:-2-2--------------------------------------|


you could never tell

                               x4
eb:------------------------2-2---|
Bb:---2------3----2-2----3-3-3-3-|
Gb:---2----4-4--2-2-2----2-2-2-2-|
Db:-4-4----4-4--2-2-2--0-0-0-0-0-|
Ab:-4-4--0-2-2--0-0-0------------|
Eb:-2-2--------------------------|

eb:------------------------2-2-2-2-2-2-2-2-2-|
Bb:---2------3----2-2----3-3-3-3-3-3-3-3-3-3-|
Gb:---2----4-4--2-2-2----2-2-2-2-2-2-2-2-2-2-|
Db:-4-4----4-4--2-2-2--0-0-0-0-0-0-0-0-0-0-0-|
Ab:-4-4--0-2-2--0-0-0------------------------|
Eb:-2-2--------------------------------------|

                               x2
eb:------------------------2-2---|
Bb:---2------3----2-2----3-3-3-3-|
Gb:---2----4-4--2-2-2----2-2-2-2-|
Db:-4-4----4-4--2-2-2--0-0-0-0-0-|
Ab:-4-4--0-2-2--0-0-0------------|
Eb:-2-2--------------------------|

eb:-------------------------------------------------------|
Bb:-7-7-7-7-7-7-7-7-7--6-6-6-6-6-6-6-6-6--2-2-2-2-2-2-2-2-|
Gb:-7-7-7-7-7-7-7-7-7--6-6-6-6-6-6-6-6-6--2-2-2-2-2-2-2-2-|
Db:-7-7-7-7-7-7-7-7-7--6-6-6-6-6-6-6-6-6--4-4-4-4-4-4-4-4-|
Ab:-5-5-5-5-5-5-5-5-5--4-4-4-4-4-4-4-4-4--4-4-4-4-4-4-4-4-|
Eb:---------------------------------------2-2-2-2-2-2-2-2-|

                                            pm.................
eb:-------------------------------------------------------------|
Bb:-7-7-7-7-7-7-7-7-7--6-6-6-6-6-6-6-6-6--2-2-------------------|
Gb:-7-7-7-7-7-7-7-7-7--6-6-6-6-6-6-6-6-6--2-2-------------------|
Db:-7-7-7-7-7-7-7-7-7--6-6-6-6-6-6-6-6-6--4-4-4-4-4-4-4-4-4-4-4-|
Ab:-5-5-5-5-5-5-5-5-5--4-4-4-4-4-4-4-4-4--4-4-4-4-4-4-4-4-4-4-4-|
Eb:---------------------------------------2-2-2-2-2-2-2-2-2-2-2-|


eb:-------------------------------------------------------|
Bb:-7-7-7-7-7-7-7-7-7--6-6-6-6-6-6-6-6-6--2-2-2-2-2-2-2-2-|
Gb:-7-7-7-7-7-7-7-7-7--6-6-6-6-6-6-6-6-6--2-2-2-2-2-2-2-2-|
Db:-7-7-7-7-7-7-7-7-7--6-6-6-6-6-6-6-6-6--4-4-4-4-4-4-4-4-|
Ab:-5-5-5-5-5-5-5-5-5--4-4-4-4-4-4-4-4-4--4-4-4-4-4-4-4-4-|
Eb:---------------------------------------2-2-2-2-2-2-2-2-|


eb:-2--------------------------------------------|
Bb:-3---2----7-7-7-7-7-7-7-7-7-7-7-7-7-7-7-7-7-7-|
Gb:-2---2----7-7-7-7-7-7-7-7-7-7-7-7-7-7-7-7-7-7-|
Db:-0---4----7-7-7-7-7-7-7-7-7-7-7-7-7-7-7-7-7-7-|
Ab:-----4----5-5-5-5-5-5-5-5-5-5-5-5-5-5-5-5-5-5-|
Eb:-----2----------------------------------------|


eb:------------------------2-2---|
Bb:---2------3----2-2----3-3-3-3-|
Gb:---2----4-4--2-2-2----2-2-2-2-|
Db:-4-4----4-4--2-2-2--0-0-0-0-0-|
Ab:-4-4--0-2-2--0-0-0------------|
Eb:-2-2--------------------------|


eb:------------------------2-2-2-2-2-2-2-2-2-|
Bb:---2------3----2-2----3-3-3-3-3-3-3-3-3-3-|
Gb:---2----4-4--2-2-2----2-2-2-2-2-2-2-2-2-2-|
Db:-4-4----4-4--2-2-2--0-0-0-0-0-0-0-0-0-0-0-|
Ab:-4-4--0-2-2--0-0-0------------------------|
Eb:-2-2--------------------------------------|


you could never tell

                               x4
eb:------------------------2-2---|
Bb:---2------3----2-2----3-3-3-3-|
Gb:---2----4-4--2-2-2----2-2-2-2-|
Db:-4-4----4-4--2-2-2--0-0-0-0-0-|
Ab:-4-4--0-2-2--0-0-0------------|
Eb:-2-2--------------------------|

eb:------------------------2-2-2-2-2-2-2-2-2-|
Bb:---2------3----2-2----3-3-3-3-3-3-3-3-3-3-|
Gb:---2----4-4--2-2-2----2-2-2-2-2-2-2-2-2-2-|
Db:-4-4----4-4--2-2-2--0-0-0-0-0-0-0-0-0-0-0-|
Ab:-4-4--0-2-2--0-0-0------------------------|
Eb:-2-2--------------------------------------|

                               x2
eb:------------------------2-2---|
Bb:---2------3----2-2----3-3-3-3-|
Gb:---2----4-4--2-2-2----2-2-2-2-|
Db:-4-4----4-4--2-2-2--0-0-0-0-0-|
Ab:-4-4--0-2-2--0-0-0------------|
Eb:-2-2--------------------------|

eb:-------------------------------------------------------|
Bb:-7-7-7-7-7-7-7-7-7--6-6-6-6-6-6-6-6-6--2-2-2-2-2-2-2-2-|
Gb:-7-7-7-7-7-7-7-7-7--6-6-6-6-6-6-6-6-6--2-2-2-2-2-2-2-2-|
Db:-7-7-7-7-7-7-7-7-7--6-6-6-6-6-6-6-6-6--4-4-4-4-4-4-4-4-|
Ab:-5-5-5-5-5-5-5-5-5--4-4-4-4-4-4-4-4-4--4-4-4-4-4-4-4-4-|
Eb:---------------------------------------2-2-2-2-2-2-2-2-|

                                            pm.................
eb:-------------------------------------------------------------|
Bb:-7-7-7-7-7-7-7-7-7--6-6-6-6-6-6-6-6-6--2-2-------------------|
Gb:-7-7-7-7-7-7-7-7-7--6-6-6-6-6-6-6-6-6--2-2-------------------|
Db:-7-7-7-7-7-7-7-7-7--6-6-6-6-6-6-6-6-6--4-4-4-4-4-4-4-4-4-4-4-|
Ab:-5-5-5-5-5-5-5-5-5--4-4-4-4-4-4-4-4-4--4-4-4-4-4-4-4-4-4-4-4-|
Eb:---------------------------------------2-2-2-2-2-2-2-2-2-2-2-|


eb:-------------------------------------------------------|
Bb:-7-7-7-7-7-7-7-7-7--6-6-6-6-6-6-6-6-6--2-2-2-2-2-2-2-2-|
Gb:-7-7-7-7-7-7-7-7-7--6-6-6-6-6-6-6-6-6--2-2-2-2-2-2-2-2-|
Db:-7-7-7-7-7-7-7-7-7--6-6-6-6-6-6-6-6-6--4-4-4-4-4-4-4-4-|
Ab:-5-5-5-5-5-5-5-5-5--4-4-4-4-4-4-4-4-4--4-4-4-4-4-4-4-4-|
Eb:---------------------------------------2-2-2-2-2-2-2-2-|


eb:-2--------------------------------------------|
Bb:-3---2----7-7-7-7-7-7-7-7-7-7-7-7-7-7-7-7-7-7-|
Gb:-2---2----7-7-7-7-7-7-7-7-7-7-7-7-7-7-7-7-7-7-|
Db:-0---4----7-7-7-7-7-7-7-7-7-7-7-7-7-7-7-7-7-7-|
Ab:-----4----5-5-5-5-5-5-5-5-5-5-5-5-5-5-5-5-5-5-|
Eb:-----2----------------------------------------|

                               x4
eb:------------------------2-2---|
Bb:---2------3----2-2----3-3-3-3-|
Gb:---2----4-4--2-2-2----2-2-2-2-|
Db:-4-4----4-4--2-2-2--0-0-0-0-0-|
Ab:-4-4--0-2-2--0-0-0------------|
Eb:-2-2--------------------------|

eb:-------------------------------------------------------------|
Bb:-2-----------------------------------------------------------|
Gb:-2-----------------------------------------------------------|
Db:-4-----------------------------------------------------------|
Ab:-4-------------------4/19------------------------------------|
Eb:-2-----------------------------------------------------------|



https://www.facebook.com/stone.rootsmusic                facebook

http://stoneroots.bandcamp.com/                          website

http://www.reverbnation.com/stoneroots



hillo son mex

23/02/13
Добавлено: 15.09.2013
Другие материалы по этой песне:
  • Аккорды и текст

Страница создана 15.09.2013
http://primanota.ru/stone-roots/you-could-never-tell-chords.htm
Привет, Гость.
Предлагаем пройти революционный курс по гитаре.
Подарок от PrimaNota.Ru, забирай!