PrimaNota.ru - самый крупный в мире бесплатный архив песенных текстов, аккордов, табулатур и нот


Stone Roots - Rosehill Mine - таба, видео

Регистрация Запомнить меня
Войти через:  Facebook Google Twitter Vk Yandex Mail.ru

Stone Roots - Rosehill Mine - таба, видео

Печатать
Просмотров: 55
rosehill mine


stone roots


TRANSCRIBED BY RUDY GUZMAN


guzman_84@hotmail.com


    1 step down

                                               
eb:--------------------------------------5-5---5-5---5-5------|
Bb:---------5-------5--5-5-5-5-----------4-4---4-4---4-4------|
Gb:---------4-------4--4-4-6-4-----------4-4---4-4---4-4------|
Db:----4-6-----4-6-------------6-7----------------------------|
Ab:-7------------------------------0--0------0-----0------0-6-|
Eb:-----------------------------------------------------------|

eb:------------------------------------5-5---5-5---5-5--------|
Bb:------------------------------------4-4---4-4---4-4--------|
Gb:------------------4-4-6-4-----------4-4---4-4---4-4--------|
Db:----6-4-6--6-4-6----------6-4------------------------------|
Ab:-7-----------------------------------------------------6---|
Eb:------------------------------0--0------0-----0------8---8-|

eb:---------------------------------------5-5---5-5---5-5---------|
Bb:-------5-5-----------------------------4-4---4-4---4-4---------|
Gb:-------4-4-----------4-4-6-4-----------4-4---4-4---4-4---------|
Db:----4-------6-4-4h6----------6-7-------------------------------|
Ab:-7-------------------------------0--0------0-----0-------6-7---|
Eb:-------------------------------------------------------8-----0-|

eb:-------------------------------------------5-5---5-5---5-5--------|
Bb:-------------------5----------5------------4-4---4-4---4-4--------|
Gb:-------------4-4/6---6-4--4/6---6-4--------4-4---4-4---4-4--------|
Db:----6--4-4h6------------------------------------------------------|
Ab:-7------------------------------------------------------------6---|
Eb:-------------------------------------0--0------0-----0------8---8-|

           they took my father...
eb:---------4-4-4-4-4-4-4-4-4-4--0-0-0-0-0-0-0-0-|
Bb:---------5-5-5-5-5-5-5-5-5-5--2-2-2-2-2-2-2-2-|
Gb:---------4-4-4-4-4-4-4-4-4-4--2-2-2-2-2-2-2-2-|
Db:----4-6--6-6-6-6-6-6-6-6-6-6--2-2-2-2-2-2-2-2-|
Ab:-7----------------------------0-0-0-0-0-0-0-0-|
Eb:----------------------------------------------|

eb:---------4-4-4-4-4-4-4-4-4-4-------5-5---5-5---5-5--------|
Bb:---------5-5-5-5-5-5-5-5-5-5-------4-4---4-4---4-4--------|
Gb:---------4-4-4-4-4-4-4-4-4-4-------4-4---4-4---4-4--------|
Db:----4-6--6-6-6-6-6-6-6-6-6-6------------------------------|
Ab:-7----------------------------------------------------6---|
Eb:-----------------------------0--0------0-----0------8---8-|

eb:---------4-4-4-4-4-4-4-4-4-4--0-0-0-0-0-0-0-0-|
Bb:---------5-5-5-5-5-5-5-5-5-5--2-2-2-2-2-2-2-2-|
Gb:---------4-4-4-4-4-4-4-4-4-4--2-2-2-2-2-2-2-2-|
Db:----4-6--6-6-6-6-6-6-6-6-6-6--2-2-2-2-2-2-2-2-|
Ab:-7----------------------------0-0-0-0-0-0-0-0-|
Eb:----------------------------------------------|

eb:---------4-4-4-4-4-4-4-4-4-4-------5-5---5-5---5-5---|
Bb:---------5-5-5-5-5-5-5-5-5-5-------4-4---4-4---4-4---|
Gb:---------4-4-4-4-4-4-4-4-4-4-------4-4---4-4---4-4---|
Db:----4-6--6-6-6-6-6-6-6-6-6-6-------------------------|
Ab:-7---------------------------------------------------|
Eb:-----------------------------0--0------0-----0-----0-|

   i just want to be where the sun always shine...
eb:---------------------7-7-7-------------------6-6-6-6-6-6-|
Bb:---------------------7-7-7--9-9-9-9-9-9-9--5-5-5-5-5-5-5-|
Gb:-6--6-6-6-6-6--8--8--8-8-8--9-9-9-9-9-9-9--6-6-6-6-6-6-6-|
Db:-7--7-7-7-7-7--9--9--9-9-9--9-9-9-9-9-9-9--6-6-6-6-6-6-6-|
Ab:-7--7-7-7-7-7--9--9--9-9-9--7-7-7-7-7-7-7--4-4-4-4-4-4-4-|
Eb:-5--5-5-5-5-5--7--7--7-7-7-------------------------------|


eb:---------------------7-7-7----------------|
Bb:---------------------7-7-7--9-9-9-9-9-9-9-|
Gb:-6--6-6-6-6-6--8--8--8-8-8--9-9-9-9-9-9-9-|
Db:-7--7-7-7-7-7--9--9--9-9-9--9-9-9-9-9-9-9-|
Ab:-7--7-7-7-7-7--9--9--9-9-9--7-7-7-7-7-7-7-|
Eb:-5--5-5-5-5-5--7--7--7-7-7----------------|


eb:--------------------------------|
Bb:---------5-------5--5-5-5-5-----|
Gb:---------4-------4--4-4-6-4-----|
Db:----4-6-----4-6-------------6-7-|
Ab:-7------------------------------|
Eb:--------------------------------|

   i really wouldnt mind...
eb:---------------------7-7-7-------------------6-6-6-6-6-6-|
Bb:---------------------7-7-7--9-9-9-9-9-9-9--5-5-5-5-5-5-5-|
Gb:-6--6-6-6-6-6--8--8--8-8-8--9-9-9-9-9-9-9--6-6-6-6-6-6-6-|
Db:-7--7-7-7-7-7--9--9--9-9-9--9-9-9-9-9-9-9--6-6-6-6-6-6-6-|
Ab:-7--7-7-7-7-7--9--9--9-9-9--7-7-7-7-7-7-7--4-4-4-4-4-4-4-|
Eb:-5--5-5-5-5-5--7--7--7-7-7-------------------------------|

eb:---------------------7-7-7----|
Bb:---------------------7-7-7--9-|
Gb:-6--6-6-6-6-6--8--8--8-8-8--9-|
Db:-7--7-7-7-7-7--9--9--9-9-9--9-|
Ab:-7--7-7-7-7-7--9--9--9-9-9--7-|
Eb:-5--5-5-5-5-5--7--7--7-7-7----|


eb:--------------------------------------5-5---5-5---5-5------|
Bb:---------5-------5--5-5-5-5-----------4-4---4-4---4-4------|
Gb:---------4-------4--4-4-6-4-----------4-4---4-4---4-4------|
Db:----4-6-----4-6-------------6-7----------------------------|
Ab:-7------------------------------0--0------0-----0------0-6-|
Eb:-----------------------------------------------------------|

eb:-------------------------------------------5-5---5-5---5-5--------|
Bb:-------------------5----------5------------4-4---4-4---4-4--------|
Gb:-------------4-4/6---6-4--4/6---6-4--------4-4---4-4---4-4--------|
Db:----6--4-4h6------------------------------------------------------|
Ab:-7------------------------------------------------------------6---|
Eb:-------------------------------------0--0------0-----0------8---8-|


eb:---------4-4-4-4-4-4-4-4-4-4--0-0-0-0-0-0-0-0-|
Bb:---------5-5-5-5-5-5-5-5-5-5--2-2-2-2-2-2-2-2-|
Gb:---------4-4-4-4-4-4-4-4-4-4--2-2-2-2-2-2-2-2-|
Db:----4-6--6-6-6-6-6-6-6-6-6-6--2-2-2-2-2-2-2-2-|
Ab:-7----------------------------0-0-0-0-0-0-0-0-|
Eb:----------------------------------------------|

eb:---------4-4-4-4-4-4-4-4-4-4-------5-5---5-5---5-5--------|
Bb:---------5-5-5-5-5-5-5-5-5-5-------4-4---4-4---4-4--------|
Gb:---------4-4-4-4-4-4-4-4-4-4-------4-4---4-4---4-4--------|
Db:----4-6--6-6-6-6-6-6-6-6-6-6------------------------------|
Ab:-7----------------------------------------------------6---|
Eb:-----------------------------0--0------0-----0------8---8-|

eb:---------4-4-4-4-4-4-4-4-4-4--0-0-0-0-0-0-0-0-|
Bb:---------5-5-5-5-5-5-5-5-5-5--2-2-2-2-2-2-2-2-|
Gb:---------4-4-4-4-4-4-4-4-4-4--2-2-2-2-2-2-2-2-|
Db:----4-6--6-6-6-6-6-6-6-6-6-6--2-2-2-2-2-2-2-2-|
Ab:-7----------------------------0-0-0-0-0-0-0-0-|
Eb:----------------------------------------------|

eb:---------4-4-4-4-4-4-4-4-4-4-------5-5---5-5---5-5---|
Bb:---------5-5-5-5-5-5-5-5-5-5-------4-4---4-4---4-4---|
Gb:---------4-4-4-4-4-4-4-4-4-4-------4-4---4-4---4-4---|
Db:----4-6--6-6-6-6-6-6-6-6-6-6-------------------------|
Ab:-7---------------------------------------------------|
Eb:-----------------------------0--0------0-----0-----0-|

   i just want to be where the sun always shine...
eb:---------------------7-7-7-------------------6-6-6-6-6-6-|
Bb:---------------------7-7-7--9-9-9-9-9-9-9--5-5-5-5-5-5-5-|
Gb:-6--6-6-6-6-6--8--8--8-8-8--9-9-9-9-9-9-9--6-6-6-6-6-6-6-|
Db:-7--7-7-7-7-7--9--9--9-9-9--9-9-9-9-9-9-9--6-6-6-6-6-6-6-|
Ab:-7--7-7-7-7-7--9--9--9-9-9--7-7-7-7-7-7-7--4-4-4-4-4-4-4-|
Eb:-5--5-5-5-5-5--7--7--7-7-7-------------------------------|


eb:---------------------7-7-7----------------|
Bb:---------------------7-7-7--9-9-9-9-9-9-9-|
Gb:-6--6-6-6-6-6--8--8--8-8-8--9-9-9-9-9-9-9-|
Db:-7--7-7-7-7-7--9--9--9-9-9--9-9-9-9-9-9-9-|
Ab:-7--7-7-7-7-7--9--9--9-9-9--7-7-7-7-7-7-7-|
Eb:-5--5-5-5-5-5--7--7--7-7-7----------------|

eb:--------------------------------|
Bb:---------5-------5--5-5-5-5-----|
Gb:---------4-------4--4-4-6-4-----|
Db:----4-6-----4-6-------------6-7-|
Ab:-7------------------------------|
Eb:--------------------------------|

   i really wouldnt mind...
eb:---------------------7-7-7-------------------6-6-6-6-6-6-|
Bb:---------------------7-7-7--9-9-9-9-9-9-9--5-5-5-5-5-5-5-|
Gb:-6--6-6-6-6-6--8--8--8-8-8--9-9-9-9-9-9-9--6-6-6-6-6-6-6-|
Db:-7--7-7-7-7-7--9--9--9-9-9--9-9-9-9-9-9-9--6-6-6-6-6-6-6-|
Ab:-7--7-7-7-7-7--9--9--9-9-9--7-7-7-7-7-7-7--4-4-4-4-4-4-4-|
Eb:-5--5-5-5-5-5--7--7--7-7-7-------------------------------|

eb:---------------------7-7-7----|
Bb:---------------------7-7-7--9-|
Gb:-6--6-6-6-6-6--8--8--8-8-8--9-|
Db:-7--7-7-7-7-7--9--9--9-9-9--9-|
Ab:-7--7-7-7-7-7--9--9--9-9-9--7-|
Eb:-5--5-5-5-5-5--7--7--7-7-7----|


eb:------------------4-4-4-4-4-4-4-4-4-4-4-4-4-4-4-|
Bb:---5---5---5---5--5-5-5-5-5-5-5-5-5-5-5-5-5-5-5-|
Gb:---4---4---4---4--4-4-4-4-4-4-4-4-4-4-4-4-4-4-4-|
Db:-6---6---6---6----6-6-6-6-6-6-6-6-6-6-6-6-6-6-6-|
Ab:------------------------------------------------|
Eb:------------------------------------------------|

    i'll take that...
eb:-4-4-4-4-4-4-4-4-4-4-4--------5-5---5-5---5-5---|
Bb:-5-5-5-5-5-5-5-5-5-5-5--------4-4---5-5---5-5---|
Gb:-6-6-6-6-6-6-6-6-6-6-6--------4-4---4-4---4-4---|
Db:-6-6-6-6-6-6-6-6-6-6-6--------------------------|
Ab:-4-4-4-4-4-4-4-4-4-4-4--0--0------0-----0-----0-|
Eb:------------------------------------------------|

                                                  x2
eb:-4-4-4-4-4-4-4-4-4-4-4--------5-5---5-5---5-5---|
Bb:-5-5-5-5-5-5-5-5-5-5-5--------4-4---5-5---5-5---|
Gb:-6-6-6-6-6-6-6-6-6-6-6--------4-4---4-4---4-4---|
Db:-6-6-6-6-6-6-6-6-6-6-6--------------------------|
Ab:-4-4-4-4-4-4-4-4-4-4-4--0--0------0-----0-----0-|
Eb:------------------------------------------------|

eb:-----------4-|
Bb:-9---------5-|
Gb:-9---------6-|
Db:-9---------6-|
Ab:-7---------4-|
Eb:-------------|

eb:------6-6-6-6--------7-7-7----------------|
Bb:------6-6-6-6--------7-7-7--9-9-9-9-9-9-9-|
Gb:-6--6-6-6-6-6--8--8--8-8-8--9-9-9-9-9-9-9-|
Db:-7--7-7-7-7-7--9--9--9-9-9--9-9-9-9-9-9-9-|
Ab:-7--7-7-7-7-7--9--9--9-9-9--7-7-7-7-7-7-7-|
Eb:-5--5-5-5-5-5--7--7--7-7-7----------------|

eb:-------4-----4-4-4-4-4-|
Bb:---------5-----5-5-5-5-|
Gb:-----6-----6---6-6-6-6-|
Db:---6-----------6-6-6-6-|
Ab:-4-------------4-4-4-4-|
Eb:-----------------------|

eb:------6-6-6-6--------7-7-7----------------|
Bb:------6-6-6-6--------7-7-7--9-9-9-9-9-9-9-|
Gb:-6--6-6-6-6-6--8--8--8-8-8--9-9-9-9-9-9-9-|
Db:-7--7-7-7-7-7--9--9--9-9-9--9-9-9-9-9-9-9-|
Ab:-7--7-7-7-7-7--9--9--9-9-9--7-7-7-7-7-7-7-|
Eb:-5--5-5-5-5-5--7--7--7-7-7----------------|

eb:-4-4-4-4-4-4-4-4-4-4-4-|
Bb:-5-5-5-5-5-5-5-5-5-5-5-|
Gb:-6-6-6-6-6-6-6-6-6-6-6-|
Db:-6-6-6-6-6-6-6-6-6-6-6-|
Ab:-4-4-4-4-4-4-4-4-4-4-4-|
Eb:-----------------------|

eb:------6-6-6-6--------7-7-7----------------|
Bb:------6-6-6-6--------7-7-7--9-9-9-9-9-9-9-|
Gb:-6--6-6-6-6-6--8--8--8-8-8--9-9-9-9-9-9-9-|
Db:-7--7-7-7-7-7--9--9--9-9-9--9-9-9-9-9-9-9-|
Ab:-7--7-7-7-7-7--9--9--9-9-9--7-7-7-7-7-7-7-|
Eb:-5--5-5-5-5-5--7--7--7-7-7----------------|

eb:-4-4-4-4-4-4-4-4-4-4-4-|
Bb:-5-5-5-5-5-5-5-5-5-5-5-|
Gb:-6-6-6-6-6-6-6-6-6-6-6-|
Db:-6-6-6-6-6-6-6-6-6-6-6-|
Ab:-4-4-4-4-4-4-4-4-4-4-4-|
Eb:-----------------------|

eb:------6-6-6-6--------7-7-7----------------|
Bb:------6-6-6-6--------7-7-7--9-9-9-9-9-9-9-|
Gb:-6--6-6-6-6-6--8--8--8-8-8--9-9-9-9-9-9-9-|
Db:-7--7-7-7-7-7--9--9--9-9-9--9-9-9-9-9-9-9-|
Ab:-7--7-7-7-7-7--9--9--9-9-9--7-7-7-7-7-7-7-|
Eb:-5--5-5-5-5-5--7--7--7-7-7----------------|

eb:-4-4-4-4-4-4-4-4-4-4-4-|
Bb:-5-5-5-5-5-5-5-5-5-5-5-|
Gb:-6-6-6-6-6-6-6-6-6-6-6-|
Db:-6-6-6-6-6-6-6-6-6-6-6-|
Ab:-4-4-4-4-4-4-4-4-4-4-4-|
Eb:-----------------------|

eb:------6-6-6-6--------7-7-7----------------|
Bb:------6-6-6-6--------7-7-7--9-------------|
Gb:-6--6-6-6-6-6--8--8--8-8-8--9-------------|
Db:-7--7-7-7-7-7--9--9--9-9-9--9-------------|
Ab:-7--7-7-7-7-7--9--9--9-9-9--7-------------|
Eb:-5--5-5-5-5-5--7--7--7-7-7----------------|

eb:----------------------|
Bb:---------5-5--------5-|
Gb:-------4-6-4--------4-|
Db:---4h6-------6-4----6-|
Ab:-7---------------7----|
Eb:----------------------|


https://www.facebook.com/stone.rootsmusic                facebook

http://stoneroots.bandcamp.com/                          website

http://www.reverbnation.com/stoneroots



hillo son mex

24/02/13
Добавлено: 05.10.2013
Вам также может быть интересно:
Другие материалы по этой песне:
  • Аккорды и текст

Страница создана 05.10.2013
http://primanota.ru/stone-roots/rosehill-mine-chords.htm
Привет, Гость.
Предлагаем пройти революционный курс по гитаре.
Подарок от PrimaNota.Ru, забирай!