PrimaNota.ru - самый крупный в мире бесплатный архив песенных текстов, аккордов, табулатур и нот


Stone Roots - Root Hog Or Die - таба, видео

Регистрация Запомнить меня
Войти через:  Facebook Google Twitter Vk Yandex Mail.ru

Stone Roots - Root Hog Or Die - таба, видео

Печатать
Просмотров: 99
root hog or die


stone roots


TRANSCRIBED BY RUDY GUZMAN


guzman_84@hotmail.com



    2 steps down
                                               
eb:----------------------|
Bb:------------------5-5-|
Gb:-6--6-4-4/6~-6-4--4-4-|
Db:-4--4-2-2/4~-4-2------|
Ab:----------------------|
Eb:----------------------|

                              x2
eb:-----------------------------|
Bb:-------------------------5-5-|
Gb:-6--6-4-4/6~-6-4/6~-6-4--4-4-|
Db:-4--4-2-2/4~-4-2/4~-4-2------|
Ab:-----------------------------|
Eb:-----------------------------|


eb:-----------------------------|
Bb:-------------------------5-5-|
Gb:-6--6-4-4/6~-6-4/6~-6-4--4-4-|
Db:-4--4-2-2/4~-4-2/4~-4-2------|
Ab:-----------------------------|
Eb:-----------------------------|

eb:----------------------------------|
Bb:------------------5-5-5-----------|
Gb:-6--6-4-4/6~-6-4--4-4-4--6---9----|
Db:-4--4-2-2/4~-4-2--2-2-2--4-0-7-0--|
Ab:----------------------------------|
Eb:----------------------------------|

eb:-----------------------------------|
Bb:-----------------------------------|
Gb:-6--6-4-4/6~-6-4/6~-6-4------------|
Db:-4--4-2-2/4~-4-2/4~-4-2--6-6-6-6-6-|
Ab:-------------------------4-4-4-4-4-|
Eb:-----------------------------------|

eb:--------------------------------------------------------------|
Bb:--------------------------------------------------------------|
Gb:-6--6-4-4/6~-6-4-------------4-4-4-4-------------6---9--------|
Db:-4--4-2-2/4~-4-2--6-6-6-6-6--2-2-2-2--6-6-6-6-6--4-0-7-0--6-6-|
Ab:------------------4-4-4-4-4-----------4-4-4-4-4-----------4-4-|
Eb:--------------------------------------------------------------|

eb:-----------------------|
Bb:-----------------------|
Gb:-----------------------|
Db:----------------9-9----|
Ab:-4--4-2-4--4-2--7-7--0-|
Eb:-2--2-0-2--2-0---------|

eb:-------------------------------|
Bb:-------------------------------|
Gb:-------------------------------|
Db:------------------------9-9----|
Ab:-4--4-2-4--4-2--4--4-2--7-7--0-|
Eb:-2--2-0-2--2-0--2--2-0---------|

eb:--------|
Bb:--------|
Gb:--------|
Db:--------|
Ab:-4--4-2-|
Eb:-2--2-0-|

eb:----------------------|
Bb:-2-2--5--5-5----------|
Gb:-3-3--4--4-4--6---9---|
Db:-4-4--2--2-2--4-0-7-0-|
Ab:-4-4------------------|
Eb:-2-2------------------|
                                     x2
eb:------------------------------------|
Bb:------------------------------------|
Gb:-3-3----3-3----3-3----6-6-6-6-6-6-6-|
Db:-4-4----4-4----4-4----6-6-6-6-6-6-6-|
Ab:-4-4----4-4----4-4----4-4-4-4-4-4-4-|
Eb:-2-2-0--2-2-0--2-2-0----------------|

eb:--------------------------------------|
Bb:--------------------------------------|
Gb:-9-9-9--6-6-6-6-6-6-6--6---9----6-6-6-|
Db:-9-9-9--6-6-6-6-6-6-6--4-0-7-0--6-6-6-|
Ab:-7-7-7--4-4-4-4-4-4-4-----------4-4-4-|
Eb:--------------------------------------|

                                x4
eb:-------------------------------|
Bb:-------------------------------|
Gb:-------------------------------|
Db:------------------------9-9----|
Ab:-4--4-2-4--4-2--4--4-2--7-7--0-|
Eb:-2--2-0-2--2-0--2--2-0---------|

eb:--------|
Bb:--------|
Gb:--------|
Db:--------|
Ab:-4--4-2-|
Eb:-2--2-0-|

eb:----------------------------------------------------------|
Bb:----------------------------------------------------------|
Gb:-11-11-9--9/11~-11-9--9-7-9--9b-9-7-9--11b-11-9--11b-11-9-|
Db:-9--9--7--7/9~--9--7--7-7-7--7--7-7-7--9---9--9--9---9--9-|
Ab:----------------------------------------------------------|
Eb:----------------------------------------------------------|

eb:-----------------------------------------------7----------|
Bb:---------------------------------------------7---10-7-----|
Gb:-9b-7-9--11b-11b-11-9-----------------9~~-9b----------9-7-|
Db:-----------------------11-11-9-11--11---------------------|
Ab:-----------------------9--9--7-9---9----------------------|
Eb:----------------------------------------------------------|

eb:----------------------------------------------------------------------------|
Bb:----------------10-10-12--14b-14-14-14-14-12-------------------17bf-17b-17b-|
Gb:------------9-9-----------14b-14-14-14-14-12------------14-16--16bf-16b-16b-|
Db:-11-11-9-11-----------------------------------14--14-16---------------------|
Ab:-9--9--7-9------------------------------------------------------------------|
Eb:----------------------------------------------------------------------------|

                 ------
eb:-------------/-------------------------------------------------|
Bb:------------/-17---------17b-17-----17b-17---------5-7b-7b-7-5-|
Gb:-14-16-16bf/-----16--14--16b-16-14--16b-16-14--4-6-------------|
Db:---------------------------------------------------------------|
Ab:---------------------------------------------------------------|
Eb:---------------------------------------------------------------|

eb:----------------------------7--------------------------------------------|
Bb:-17b-17-----17b-17--------7---10-7-------13-12-10------------------------|
Gb:-16b-16-14--16b-16-14--9b----------9-7------------11-9-11-11-11-11-11-11-|
Db:-------------------------------------------------------------------------|
Ab:-------------------------------------------------------------------------|
Eb:-------------------------------------------------------------------------|

eb:-----------------|
Bb:-----5-7b-7b-7-5-|
Gb:-4-6-------------|
Db:-----------------|
Ab:-----------------|
Eb:-----------------|

eb:----------------------|
Bb:-2-2--5--5-5----------|
Gb:-3-3--4--4-4--6---9---|
Db:-4-4--2--2-2--4-0-7-0-|
Ab:-4-4------------------|
Eb:-2-2------------------|
                                     x2
eb:------------------------------------|
Bb:------------------------------------|
Gb:-3-3----3-3----3-3----6-6-6-6-6-6-6-|
Db:-4-4----4-4----4-4----6-6-6-6-6-6-6-|
Ab:-4-4----4-4----4-4----4-4-4-4-4-4-4-|
Eb:-2-2-0--2-2-0--2-2-0----------------|

eb:--------------------------------------|
Bb:--------------------------------------|
Gb:-9-9-9--6-6-6-6-6-6-6--6---9----6-6-6-|
Db:-9-9-9--6-6-6-6-6-6-6--4-0-7-0--6-6-6-|
Ab:-7-7-7--4-4-4-4-4-4-4-----------4-4-4-|
Eb:--------------------------------------|

                                x4
eb:-------------------------------|
Bb:-------------------------------|
Gb:-------------------------------|
Db:------------------------9-9----|
Ab:-4--4-2-4--4-2--4--4-2--7-7--0-|
Eb:-2--2-0-2--2-0--2--2-0---------|

eb:--------|
Bb:--------|
Gb:--------|
Db:--------|
Ab:-4------|
Eb:-2------|




https://www.facebook.com/stone.rootsmusic                facebook

http://stoneroots.bandcamp.com/                          website

http://www.reverbnation.com/stoneroots



hillo son mex

24/02/13
Добавлено: 06.08.2013
Другие материалы по этой песне:
  • Аккорды и текст

Страница создана 06.08.2013
http://primanota.ru/stone-roots/root-hog-or-die-chords.htm
Привет, Гость.
Предлагаем пройти революционный курс по гитаре.
Подарок от PrimaNota.Ru, забирай!