PrimaNota.ru - самый крупный в мире бесплатный архив песенных текстов, аккордов, табулатур и нот


Stone Roots - Knives - таба, видео

Регистрация Запомнить меня
Войти через:  Facebook Google Twitter Vk Yandex Mail.ru

Stone Roots - Knives - таба, видео

Печатать
Просмотров: 58
knives


stone roots


TRANSCRIBED BY RUDY GUZMAN


guzman_84@hotmail.com



1 step down

              pm.....              . .                  x4                                
eb:-------------------------------------------------------|
Bb:-------------------------------------------------------|
Gb:-------------------------------------------------------|
Db:---------------------------------------------1-3-1-----|
Ab:-4-4-4-4-4-4---------4-4-4-4-4--4-5-6----1-3-------3-1-|
Eb:-2-2-2-2-2-2-0-0-0-2-2-2-2-2-2--2-3-4--4---------------|


  pm...........      ...........  x4
eb:----------------------------------|
Bb:----------------------------------|
Gb:----------------------------------|
Db:----------------------------------|
Ab:-6-6-6-6-6-6--6~--6-6-6-6-6-6--6~-|
Eb:-4-4-4-4-4-4--4~--4-4-4-4-4-4--4~-|

                                  x2
eb:----------------------------------|
Bb:----------------------------------|
Gb:-13-13-13-13--10--8---------------|
Db:-13-13-13-13--10--8--9-8-9-8------|
Ab:-11-11-11-11--8---6----------11~~-|
Eb:----------------------------------|

                        x2
eb:----4------------------|
Bb:----4------------------|
Gb:-----------------------|
Db:-------------1-3-1-----|
Ab:-6-------1-3-------3-1-|
Eb:-4-----4---------------|

  pm...........      ...........  x4
eb:----------------------------------|
Bb:----------------------------------|
Gb:----------------------------------|
Db:----------------------------------|
Ab:-6-6-6-6-6-6--6~--6-6-6-6-6-6--6~-|
Eb:-4-4-4-4-4-4--4~--4-4-4-4-4-4--4~-|

                                  x2
eb:----------------------------------|
Bb:----------------------------------|
Gb:-13-13-13-13--10--8---------------|
Db:-13-13-13-13--10--8--9-8-9-8------|
Ab:-11-11-11-11--8---6----------11~~-|
Eb:----------------------------------|

                        x2
eb:----4------------------|
Bb:----4------------------|
Gb:-----------------------|
Db:-------------1-3-1-----|
Ab:-6-------1-3-------3-1-|
Eb:-4-----4---------------|

              pm.....              . .                  x4                                
eb:-------------------------------------------------------|
Bb:-------------------------------------------------------|
Gb:-------------------------------------------------------|
Db:---------------------------------------------1-3-1-----|
Ab:-4-4-4-4-4-4---------4-4-4-4-4--4-5-6----1-3-------3-1-|
Eb:-2-2-2-2-2-2-0-0-0-2-2-2-2-2-2--2-3-4--4---------------|


eb:----------|
Bb:----------|
Gb:----------|
Db:----------|
Ab:-6---6----|
Eb:-4---4----|

  pm...........      ...........  x4
eb:----------------------------------|
Bb:----------------------------------|
Gb:----------------------------------|
Db:----------------------------------|
Ab:-6-6-6-6-6-6--6~--6-6-6-6-6-6--6~-|
Eb:-4-4-4-4-4-4--4~--4-4-4-4-4-4--4~-|

                                  x2
eb:----------------------------------|
Bb:----------------------------------|
Gb:-13-13-13-13--10--8---------------|
Db:-13-13-13-13--10--8--9-8-9-8------|
Ab:-11-11-11-11--8---6----------11~~-|
Eb:----------------------------------|

                        x2
eb:----4------------------|
Bb:----4------------------|
Gb:-----------------------|
Db:-------------1-3-1-----|
Ab:-6-------1-3-------3-1-|
Eb:-4-----4---------------|

              pm.....              . .                  x4                                
eb:-------------------------------------------------------|
Bb:-------------------------------------------------------|
Gb:-------------------------------------------------------|
Db:---------------------------------------------1-3-1-----|
Ab:-4-4-4-4-4-4---------4-4-4-4-4--4-5-6----1-3-------3-1-|
Eb:-2-2-2-2-2-2-0-0-0-2-2-2-2-2-2--2-3-4--4---------------|

  pm...........       ...........     x4
eb:-------------------------------------|
Bb:-------------------------------------|
Gb:-------------------------------------|
Db:-------------------------------------|
Ab:-6-6-6-6-6-6--6~---6-6-6-6-6-6--6~---|
Eb:-4-4-4-4-4-4--4~-0-4-4-4-4-4-4--4~-0-|

  gt1
                        x2
eb:----4------------------|
Bb:----4------------------|
Gb:-----------------------|
Db:-------------1-3-1-----|
Ab:-6-------1-3-------3-1-|
Eb:-4-----4---------------|
  gt2
eb:--------------4---------|
Bb:----------------4-------|
Gb:------------------4-----|
Db:--------------------4---|
Ab:---------4-6----------6-|
Eb:-------7----------------|

                           x4
eb:--------------------------|
Bb:--------------------------|
Gb:-4/6--6-6-6--4-----4------|
Db:-4/6--6-6-6--4--6--4--6-6-|
Ab:----------------6-----6-6-|
Eb:--------------------------|

eb:--------------------------------------------------------------|
Bb:-7/9--9-9-9--9-9--9-9-9--9-9-9--9-9--9-9-9--9-9-9--9-9--9-9-9-|
Gb:-6/8--8-8-8--8-8--8-8-8--8-8-8--8-8--8-8-8--8-8-8--8-8--8-8-8-|
Db:--------------------------------------------------------------|
Ab:--------------------------------------------------------------|
Eb:--------------------------------------------------------------|

                                  ---------------------------
eb:-----------------------------------------------------------|
Bb:-17-17-17-17-17-17-17-17--17b-/-17-17-17-17-17-17-17-17-17-|
Gb:-16-16-16-16-16-16-16-16--16b/--16-16-16-16-16-16-16-16-16-|
Db:-----------------------------------------------------------|
Ab:-----------------------------------------------------------|
Eb:-----------------------------------------------------------|

                           x4
eb:--------------------------|
Bb:--------------------------|
Gb:-4/6--6-6-6--4-----4------|
Db:-4/6--6-6-6--4--6--4--6-6-|
Ab:----------------6-----6-6-|
Eb:--------------------------|

eb:--------------------------------------------------------------|
Bb:-7/9--9-9-9--9-9--9-9-9--9-9-9--9-9--9-9-9--9-9-9--9-9--9-9-9-|
Gb:-6/8--8-8-8--8-8--8-8-8--8-8-8--8-8--8-8-8--8-8-8--8-8--8-8-8-|
Db:--------------------------------------------------------------|
Ab:--------------------------------------------------------------|
Eb:--------------------------------------------------------------|

                                  ---------------------------
eb:-----------------------------------------------------------|
Bb:-17-17-17-17-17-17-17-17--17b-/-17-17-17-17-17-17-17-17-17-|
Gb:-16-16-16-16-16-16-16-16--16b/--16-16-16-16-16-16-16-16-16-|
Db:-----------------------------------------------------------|
Ab:-----------------------------------------------------------|
Eb:-----------------------------------------------------------|

                                  
eb:----------------------------------|
Bb:----------------------------------|
Gb:-13-13-13-13--10--8---------------|
Db:-13-13-13-13--10--8--9-8-9-8------|
Ab:-11-11-11-11--8---6----------11~~-|
Eb:----------------------------------|

eb:--------------------------------|
Bb:--------------------------------|
Gb:-13-13-13-13--10--8-------------|
Db:-13-13-13-13--10--8--9-8-9-8----|
Ab:-11-11-11-11--8---6-----------6-|
Eb:------------------------------4-|




hillo son mex

14/07/13
Добавлено: 13.06.2013
Другие материалы по этой песне:
  • Аккорды и текст

Страница создана 13.06.2013
http://primanota.ru/stone-roots/knives-chords.htm
Привет, Гость.
Предлагаем пройти революционный курс по гитаре.
Подарок от PrimaNota.Ru, забирай!