PrimaNota.ru - самый крупный в мире бесплатный архив песенных текстов, аккордов, табулатур и нот


Stone Roots - Horns - таба, видео

Регистрация Запомнить меня
Войти через:  Facebook Google Twitter Vk Yandex Mail.ru

Stone Roots - Horns - таба, видео

Печатать
Просмотров: 105
Уроки эстрадного вокала в Санкт-Петербурге
horns


stone roots


TRANSCRIBED BY RUDY GUZMAN


guzman_84@hotmail.com



1 step down


     fdbk                                               
eb:----------------|
Bb:----------------|
Gb:----------------|
bb:----------------|
Ab:----------------|
Eb:----------------|


eb:---------------------------4---------4------|
Bb:---------------------------4---------4--4---|
Gb:------------------------------------------4-|
Db:--------------------------------------------|
Ab:-6---------6-----------6----------6---------|
Eb:-4---------4-----------4----------4---------|


eb:------------------------------------------------------------------|
Bb:------------------------------------------------------------------|
Gb:------------------------------------------------------------------|
Db:-------------1----1--1--------------------------4----6--6-4---4---|
Ab:---2-4-2--4-----4------4-2-4-2--6------4-6-4--6---6---------6---6-|
Eb:-4------------------------------4----7----------------------------|


eb:---------------------------------------------------------------|
Bb:-----------------------------------------------------7-7-7-7-7-|
Gb:------------------4------4----------------4---4--5/8-8-8-8-8-8-|
Db:--------------4/6----6-6---6p4-6p4--6-4-6---6-6----------------|
Ab:---4-----------------------------------------------------------|
Eb:-7---7--4-4----------------------------------------------------|

              ---------------------
eb:----------/----------------------------------------|
Bb:-9p7-10bf/--10-10-10-10-10-10-10--10p7-------------|
Gb:---------------------------------------8--6----6---|
Db:---------------------------------------------8---8-|
Ab:---------------------------------------------------|
Eb:---------------------------------------------------|


eb:-----------------------------------------------------|
Bb:-----------------------------------------------------|
Gb:-----------------------------------------------------|
Db:-----------------------------------6------------6----|
Ab:-6------9------6------9------6-----4------6-----4----|
Eb:-4------7------4------7------4------------4----------|

                                                 x2
eb:------------------------------------------------|
Bb:------------------------------------------------|
Gb:------------------------------------------------|
Db:-9-9-9-9-9--8-8-8-8-----------------------------|
Ab:-7-7-7-7-7--6-6-6-6--6-------2-----------2------|
Eb:---------------------4---4-4----4-4--4-4----4-4-|


eb:----------4---------------------------------------------------|
Bb:----------4--------------------------4-------4-4----4-4---4-4-|
Gb:-------4--------------4---4--------4---4-----4-4----4-4---4-4-|
Db:-------------------/6---6---6----6---------6-----6------6-----|
Ab:-6------------6----------------6------------------------------|
Eb:-4------------4-----------------------------------------------|

                                  --------------
eb:------------------------------/--------------|
Bb:-/7-7777777--10-10-10-10-10b-/10-10-10-10-10-|
Gb:-/6-6666666--9--9--9--9--9-b/-9--9--9--9--9--|
Db:---------------------------------------------|
Ab:---------------------------------------------|
Eb:---------------------------------------------|


eb:-----------------------------------------------------|
Bb:-----------------------------------------------------|
Gb:-----------------------------------------------------|
Db:-----------------------------------6------------6----|
Ab:-6------9------6------9------6-----4------6-----4----|
Eb:-4------7------4------7------4------------4----------|

                                                 x2
eb:------------------------------------------------|
Bb:------------------------------------------------|
Gb:------------------------------------------------|
Db:-9-9-9-9-9--8-8-8-8-----------------------------|
Ab:-7-7-7-7-7--6-6-6-6--6-------2-----------2------|
Eb:---------------------4---4-4----4-4--4-4----4-4-|

                              x4
eb:-----------------------------|
Bb:-----------------------------|
Gb:-----------------------------|
Db:---------6--6-6--------------|
Ab:-6--6-6--4--4-4--6--6-6--9-8-|
Eb:-4--4-4----------4--4-4--7-6-|


eb:--------------------------------------|
Bb:-------------4~~-----4b~-4-4-4--------|
Gb:-------------4~~-----4b~-4-4-4--------|
Db:------------------6-------------6p4-6-|
Ab:-6-----4--6---------------------------|
Eb:-4--7---------------------------------|

                                            --------             ---
eb:----------------------------------------/--------------------/----|
Bb:------------------4b--------------7-9bf/-99999999-9p7---7-9b/-9-9-|
Gb:-------------4----4b--6p4-6p4-6/8---------------------8-----------|
Db:-------------4-6--------------------------------------------------|
Ab:-6-----4--6-------------------------------------------------------|
Eb:-4--7-------------------------------------------------------------|


eb:----------------------------------------------------------------------|
Bb:-9-9-----9-10-10b----9-10-10b----9-10-10b----9-10-10b-10-9------------|
Gb:------11----------11----------11----------11----------------11-8-11-8-|
Db:----------------------------------------------------------------------|
Ab:----------------------------------------------------------------------|
Eb:----------------------------------------------------------------------|

                   --------------         ------------------------
eb:---------------/----------------------/-------------------------|
Bb:----12----12bf/-12-12-12-12-12--15bf-/--15-15-15-15-15-15-15-15-|
Gb:-11----11-----------------------14bf/---14-14-14-14-14-14-14-14-|
Db:----------------------------------------------------------------|
Ab:----------------------------------------------------------------|
Eb:----------------------------------------------------------------|

eb:-----------------------------------------------------|
Bb:-----------------------------------------------------|
Gb:-----------------------------------------------------|
Db:-----------------------------------6------------6----|
Ab:-6------9------6------9------6-----4------6-----4----|
Eb:-4------7------4------7------4------------4----------|

                                                 x2
eb:------------------------------------------------|
Bb:------------------------------------------------|
Gb:------------------------------------------------|
Db:-9-9-9-9-9--8-8-8-8-----------------------------|
Ab:-7-7-7-7-7--6-6-6-6--6-------2-----------2------|
Eb:---------------------4---4-4----4-4--4-4----4-4-|

                     x3
eb:--------------------|
Bb:--------------------|
Gb:--------------------|
Db:-9-9-9-9-9--8-8-8-8-|
Ab:-7-7-7-7-7--6-6-6-6-|
Eb:--------------------|

eb:------------------------------------------------------------|
Bb:------------------------------------------------------------|
Gb:------------------------------------------------------------|
Db:------------------------------------------------------------|
Ab:-6----------------------------------------------------------|
Eb:-4----------------------------------------------------------|






hillo son mex

15/07/13
Добавлено: 28.06.2013
Другие материалы по этой песне:
  • Аккорды и текст

Страница создана 28.06.2013
http://primanota.ru/stone-roots/horns-chords.htm
Привет, Гость.
Предлагаем пройти революционный курс по гитаре.
Подарок от PrimaNota.Ru, забирай!