PrimaNota.ru - самый крупный в мире бесплатный архив песенных текстов, аккордов, табулатур и нот


Stone Gods - Dont Drink The Water - таба, видео

Регистрация Запомнить меня
Войти через:  Facebook Google Twitter Vk Yandex Mail.ru

Stone Gods - Dont Drink The Water - таба, видео

Печатать
Просмотров: 167
Уроки эстрадного вокала в Санкт-Петербурге
Авторы: Ed Graham, Toby MacFarlaine, Dan Hawkins, Richie Edwards

-------------------------------------------------------------------------------
                     Don't Drink the Water – Stone Gods
-------------------------------------------------------------------------------
Tabbed by: Sam Mézec
Email: smezec@hotmail.com

Tuning: Standard

Intro

e|--------------|-----------|-------------|-----------|
B|---0----------|--3--------|--0----------|--3--------|
G|---1----------|--2--------|--1----------|--2--------|
D|---2------4---|--0--------|--2------4---|--0--------|
A|---2------4---|-----------|--2------4---|-----------|   x2
E|---0------2---|-----------|--0------2---|-----------|

There's meant to be a little guitar bit on top of this, based on the high E, but I'm not 
how to play it yet.

Verse Riff

e|--------------|----------|--------------|-----------|
B|---0-------3--|--2---2---|---0-------3--|--2---2----|
G|---1-------2--|--2---2---|---1-------2--|--2---2----|
D|---2---4---0--|--2---2---|---2---4---0--|--2---2----|
A|---2---4------|--0—--0---|---2---4------|--0---0----|
E|---0---2------|----------|---0---2------|-----------|

The pre-chorus is the same as the intro

Chorus

e|---------------|-------------|----------------|-------------|
B|---------------|-------------|----------------|-------------|
G|---------------|-------------|----------------|-------------|
D|--9--9-9--9-9--|--9-9--7-7---|----------------|-------------|
A|--7--7-7--7-7--|--7-7--5-4---|--7--7-7--7-7---|--7-7--------|
E|---------------|-------------|--5--5-5--5-5---|--5-5--4-0---|

e|---------------|-------------|----------------|-------------|
B|---------------|-------------|--3--3-3--3-3---|--3-3--------|
G|---------------|-------------|--2--2-2--2-2---|--2-2--------|
D|---------------|-------------|--0--0-0--0-0---|--0-0--------|
A|--4--4-4--4-4--|--4-4--------|----------------|-------4-2---|
E|--2--2-2--2-2--|--2-2--4-----|----------------|-------------|    x2

Funky bit

e|------------------|------------------------|
B|------------------|------------------------|
G|------------------|------------9-----------|
D|------------------|-------9s11-------------|
A|-7-7-7-7-7-7-7-7--|--7-5----------4-5-6----|
E|------------------|------------------------|


Repeat the verse bit with Es in during the singing.

Repeat the Pre-chorus and chorus. Then the funky bit twice


Caribbean breakdown

e|-X-----X-----X-----X-----|-X-----X-----X-----X-----|
B|-X--9--X--9--X--9--X--9--|-X--5--X--5--X--5--X--5--|
G|-X--9--X--9--X--9--X--9--|-X--6--X--6--X--6--X--6--|
D|-X--9--X--9--X--9--X--9--|-X--7--X--7--X--7--X--7--|
A|-X--7--X--7--X--7--X--7--|-X--7--X--7--X--7--X--7--|
E|-X-----X-----X-----X-----|-X--5--X--5--X--5--X--5--|   x2


Then repeat the Intro and the Chorus a few times!


Enjoy,
Peace out.

Btw, Get Stone Gods album, it's amazing.

Also Hot Leg are awesome too.

| /  slide up
| \  slide down
| h  hammer-on
| p  pull-off
| ~  vibrato
| +  harmonic
| x  Mute note
===============================================================================
Добавлено: 03.03.2012
Другие материалы по этой песне:

Страница создана 03.03.2012
http://primanota.ru/stone-gods/dont-drink-the-water-chords.htm
Привет, Гость.
Предлагаем пройти революционный курс по гитаре.
Подарок от PrimaNota.Ru, забирай!