PrimaNota.ru - самый крупный в мире бесплатный архив песенных текстов, аккордов, табулатур и нот


Stomacher - Heavy On It - таба, видео

Регистрация Запомнить меня
Войти через:  Facebook Google Twitter Vk Yandex Mail.ru

Stomacher - Heavy On It - таба, видео

Печатать
Просмотров: 30
-------------------------------------------------------------------------------
                             Heavy On It - Stomacher
-------------------------------------------------------------------------------

Tuning: standard

verse left guitar
e|---------------------------------------------------------------------------------------------------|
B|--8--8--8--9--9--9--9--9--11-11-11--8--8--8--8--8--8--8--8--9--9--9--9--9--8--8--8-----------------|
G|--8--8--8--8--8--8--8--8---8--8--8--8--8--8--8--8--8--8--8--8--8--8--8--8--8--8--8-10-10-10-10-10--|
D|-10-10-10-10-10-10-10-10--10-10-10-10-10-10-10-10-10-10-10-10-10-10-10-10-10-10-10-10-10-10-10-10--|
A|---------------------------------------------------------------------------------------------------|
E|---------------------------------------------------------------------------------------------------|
verse right guitar
e|---------------------------------------------------------------------------|
B|--11b13--9--8--------11b13--9--8b9r8b9r8b9r8--------8b9r8b9r8b9r8----------|
G|---------------------------------------------------------------------------|
D|---------------------------------------------------------------------------|
A|---------------------------------------------------------------------------|
E|---------------------------------------------------------------------------|

chorus -right guitar in parentheses
e|-------------------------------------------------------------------------------|
B|-------8------9--------11---8(b9r)-------8--------9--------8-------------------|
G|----8-------8-------8----------------8--------8--------8-----10----------------|  3x
D|-10------10------10---------------10-------10-------10-------------------------|
A|-------------------------------------------------------------------------------|
E|-------------------------------------------------------------------------------|
                                                  sweep
e|---------------------------------------------------8-----------------------|
B|-------8------9--------11-----------8-9-8---------8------------------------|
G|----8-------8-------8------------8--------8----8-8-------------------------|
D|-10------10------10-----------10-------------10----------------------------|
A|---------------------------------------------------------------------------|
E|---------------------------------------------------------------------------|

after chorus breakdown thing
e|----------8-----------8--------------------------------------------------|
B|--------8-----------8---8/9/11-------------------------------------------|
G|-----/8----------/8------------------------------------------------------|
D|-10--------10------------------------------------------------------------|
A|-10--------10------------------------------------------------------------|
E|-8----------8------------------------------------------------------------|

verse right guitar @ 2:40 swept
e|----------------------------------------------------------------------|
B|--11---9--8---11---9--8-----------------------------------------------|
G|---8---8--8----8---8--8-----------------------------------------------|
D|--10--10-10---10--10-10-----------------------------------------------|
A|----------------------------------------------------------------------|
E|----------------------------------------------------------------------|

chorus

bridge
e|---------------------------------------------------------------------------|
B|------8-----8-----8-------8--------8---------------------------------------|
G|-----------------10-------10------10---------------------------------------|
D|--10----10----10-----10--------10------------------------------------------|
A|---------------------------------------------------------------------------|
E|---------------------------------------------------------------------------|

outro
e|---------------------------------------------------------------------------|
B|---8--8--8--8--8--8--8--8--8--8--8--8--8-----------------------------------|
G|---8--8--8--8--8--8--8--8--8--8--8--8--8-----------------------------------|
D|--10-10-10-10-10-10-10-10-10-10-10-10-10-----------------------------------|
A|---------------------------------------------------------------------------|
E|---------------------------------------------------------------------------|

e|---------------------------------------------------------------------------|
B|--11-11-11-11-11-11-11--8--8--8--8--8--8-----------------------------------|
G|---8--8--8--8--8--8--8--8--8--8--8--8--8-----------------------------------|
D|--10-10-10-10-10-10-10-10-10-10-10-10-10-----------------------------------|
A|---------------------------------------------------------------------------|
E|---------------------------------------------------------------------------|

High string is just right guitar I think
e|-------8-----10------11---8-----------------------------------------|
B|-------8------9------11---8-----------------------------------------|
G|-----8-----8-------8------------------------------------------------|
D|--10----10------10--------------------------------------------------|
A|--------------------------------------------------------------------|
E|--------------------------------------------------------------------|


************************************

| /   slide up
| \   slide down
| h   hammer-on
| p   pull-off
| ~   vibrato
| +   harmonic
| x   Mute note
| b   Bend
| pb  Pre-bend
| br  Bend release
| pbr Pre-bend release
| brb Bend release bend

************************************
Добавлено: 23.12.2015
Другие материалы по этой песне:
  • Аккорды и текст

Страница создана 23.12.2015
http://primanota.ru/stomacher/heavy-on-it-chords.htm
Привет, Гость.
Предлагаем пройти революционный курс по гитаре.
Подарок от PrimaNota.Ru, забирай!