PrimaNota.ru - самый крупный в мире бесплатный архив песенных текстов, аккордов, табулатур и нот


Stolen Babies - So Close - таба, видео

Регистрация Запомнить меня
Войти через:  Facebook Google Twitter Vk Yandex Mail.ru

Stolen Babies - So Close - таба, видео

Печатать
Просмотров: 49
Artist: Stolen Babies
Song: So Close
Album: There Be Squabbles Ahead
Tabbed by Adameus88
Video Playthrough available at: youtube.com/watch?v=FgaQIYW3-GM

Tempo = 128

Standard Tuning

PM = palm mute
h  = hammer-on
v  = vibrato
/  = slide up
\  = slide down

   (Synth/Drum Intro)
E |-------|-------|-------|-------|-------|-------|-------|-------|
B |-------|-------|-------|-------|-------|-------|-------|-------|
G |-------|-------|-------|-------|-------|-------|-------|-------|
D |-------|-------|-------|-------|-------|-------|-------|-------|
A |-------|-------|-------|-------|-------|-------|-------|-------|
E |-------|-------|-------|-------|-------|-------|-------|-------|


VERSE
|--------------------------------------------------|--------------------------------------------------|
|--------------------------------------------------|--------------------------------------------------|
|o-------------------------------------------------|--------------------------------------------------|
|o-------------------------------------------------|--------------------------------------------------|
|--------------------------------------------------|--------------------------------------------------|
|-4----5----7----8----7----5----4----5--4----4--4--|--4----5----7----8----7----5----4----5--4----4--4-|
PM...................................................................................................

(1st ending)
|---------------------------------------------------|-------------------------------------------------|
|---------------------------------------------------|-------------------------------------------------|
|---------------------------------------------------|------------------------------------------------o|
|---------------------------------------------------|------------------------------------------------o|
|---------------------------------------------------|-------------------------------------------------|
|-1--1--1--1--4--1--1--1--------1-----1--1--1--1----|-----1-----1--1--1--1--------1-----1--1--1--1----|
PM.................................................................................................

(2nd ending)
|------------------------------|-------------------------|
|------------------------------|-------------------------|
|------------------------------|-------------------------|
|------------------------------|-------------------------|
|------------------------------|----------------3--------|
|--1---------------------------|----------------1--------|


CHORUS
|---------------------------------------------------|
|---------------------------------------------------|
|---------------------------------------------------|
|---------------------------------------------------|
|---------------------------------------------------|
|-0--0--0--0--3h-0--0--3h-0--0--0--0--1--1----------|
PM.......................................


POST-CHORUS
|-------------------------------------------------|---------------------------------------------------|
|-------------------------------------------------|---------------------------------------------------|
|-------------------------------------------------|---------------------------------------------------|
|-------7-----------------------------------------|--------7------------------------------------------|
|-0-----------0--0--0--3h-0--0--0--1h-0--0--0-----|--0-----------0--0-----0-----3-----6--5--0--3--5---|
|-------------------------------------------------|---------------------------------------------------|
PM.           .................................      .           ..................................

TRANSITION (synth arranged for guitar)

|--16v-------16v-------|-16v---------17v----------|--16v----------------------------------------------|
|----------------------|--------------------------|---------------------------------------------------|
|----------------------|--------------------------|---------------------------------------------------|
|----------------------|--------------------------|---------------------------------------------------|
|----------------------|--------------------------|---------------------------------------------------|
|----------------------|--------------------------|---------------------------------------------16\---|


(VERSE)


(CHORUS) - w/lead riff:
|-------------------------------------------------|---------------------------------------------------|
|-------------------------------------------------|---------------------------------------------------|
|-9v------------10v------9v----------------10v----|-9v-------------10v------13v----------10v----------|
|-------------------------------------------------|---------------------------------------------------|
|-------------------------------------------------|---------------------------------------------------|
|-------------------------------------------------|---------------------------------------------------|


(POST-CHORUS)


(CHORUS)


BRIDGE
|---------------------------------------------------|-----------------------------------------------|
|---------------------------------------------------|-----------------------------------------------|
|o--------------------------------------------------|-----------------------------------------------|
|o--------------------------------------------------|-----------------------------------------------|
|---------------------------------------------------|-----------------------------------------------|
|-0-----------0--------3-----------0--------0-------|-----3--------0--------0--------/11v-----------|
PM............................................................................

(1st ending)
|---------------------------------------------------|-----------------------------------------------|
|---------------------------------------------------|-----------------------------------------------|
|---------------------------------------------------|----------------------------------------------o|
|---------------------------------------------------|----------------------------------------------o|
|---------------------------------------------------|-----------------------------------------------|
|-0-----------0-----0--3-----------0--------0--0----|-----1--------0--------0-------/11v------------|
PM...........................................................................

(2nd ending)
|---------------------------------------------------|-----------------------------------------------|
|---------------------------------------------------|-----------------------------------------------|
|---------------------------------------------------|-----------------------------------------------|
|---------------------------------------------------|-----------------------------------------------|
|---------------------------------------------------|-----------------------------------------------|
|-0--0--0--0--0--0--0--3-----------0--------0--0----|-----1--------0--------0-------/11v------------|
PM............................................................................


(VERSE)


(CHORUS)


(POST-CHORUS)


(OUTRO = CHORUS riff)
Добавлено: 07.12.2015
Другие материалы по этой песне:

Страница создана 07.12.2015
http://primanota.ru/stolen-babies/so-close-chords.htm
Привет, Гость.
Предлагаем пройти революционный курс по гитаре.
Подарок от PrimaNota.Ru, забирай!