PrimaNota.ru - самый крупный в мире бесплатный архив песенных текстов, аккордов, табулатур и нот


Stir - New Beginning - аккорды и текст, таба, бас-таба, видео

Регистрация Запомнить меня
Войти через:  Facebook Google Twitter Vk Yandex Mail.ru

Stir - New Beginning - аккорды и текст, таба, бас-таба, видео

Печатать
Просмотров: 239
Уроки эстрадного вокала в Санкт-Петербурге
New Beginning
Stir
		   t. See http://www..net/faq/ for more information.                     #
#-----------------------------------------------------------------------------#


I love this song.  This is how I play the song, any improvements are
appreciated.

Artist: Stir
Written by: Andrew Schmidt
Album: Holy Dogs

Intro: Let ring

Eb----------------7----------------6-------------------7----------------6
Bb-------------5---------------5--------------------5-----------------5--
Gb--------7----------------7---------------------7-----------------7-----
Db--------------------------------------------------------------------------
Ab--------------------------------------------------------------------------
Eb--------------------------------------------------------------------------


Prechorus:  Heavy distortion let notes ring

Eb-----------------------------------------------------------
Bb-----------------------------------------------------------
Gb---------4-----5----4---6---7-----6----4--------------
Db---3-----2-----3----2---4---5-----4----2-------------
Ab---1-----2-----3----2---4---5-----4----2-------------
Eb---1-------------------------------------------------------

Chorus:  Heavy distortion

Eb-----------------------------------------------------------
Bb-----------------------------------------------------------
Gb--9---7---5--4-----9--7--5--55555----------------
Db--7---5---3--2-----7--5--3--333333---------------
Ab--7---5---3--2-----7--5--3--333333--------------
Eb------------------------------------------1--------------

Post Chorus:

Eb--------------------------------------------------------
Bb-------------------------------------------------------
Gb---999--888--99997----------------------------
Db---777--666--77775----------------------------
Ab---777--666--77775----------------------------
Eb-------------------------------------------------------

Order

Intro (through opening verses)
Prechorus
Chorus
Intro
Prechorus
Chorus
Post Chorus
Chorus
Post chorus and fade out

That's pretty much it.  I hope it's a good start for the song, soon everyone
will know what I've know for a long time, Stir rocks!  G does the rest of
the bands from St. Louis.  Long live the St. Louis music scene.

David Shenefelt  St. Louis, MO     
Добавлено: 22.10.2013
Другие материалы по этой песне:
  • Аккорды и текст

Страница создана 05.03.2012
http://primanota.ru/stir/new-beginning-chords.htm
Привет, Гость.
Предлагаем пройти революционный курс по гитаре.
Подарок от PrimaNota.Ru, забирай!