PrimaNota.ru - самый крупный в мире бесплатный архив песенных текстов, аккордов, табулатур и нот


Stinkhole - In Fur The Kill - таба, видео

Регистрация Запомнить меня
Войти через:  Facebook Google Twitter Vk Yandex Mail.ru

Stinkhole - In Fur The Kill - таба, видео

Печатать
Просмотров: 124
Artist : Stinkhole
Song : In Für The Kill
Tabbed by : Laurens Keijzer
Tuning Drop C

Guitar 1
|---------------------------|
|---------------------------|
|---------------------------|
|---------------------------|     8X
|----------3-0---1-3---1----|
|--0-3-1-0-----1-----1---3-1|

Guitar 2
|----------|
|----------|
|----------|
|----0----0|
|--1-0-1--0|
|----0----0|

|---------------------------|
|----------1----------------|
|----------------3-----3----|
|--0-3-1-0--3-1---3-1---3-1-|    4X
|---------------------------|
|---------------------------|

Guitar 1+2 
|-----------------------------------------------------------|
|-----------------------------------------------------------|
|-----------3-3-------------------------3-3-----------------|
|-----------3-3-----------3-3-----------3-3-----------------|	4X
|--0-0-0-0--1-1--0-0-0-0--3-3--0-0-0-0--1-1--0-1-0-1-0------|
|--0-0-0-0-------0-0-0-0--3-3--0-0-0-0-----------------0-2-3|
   . . . .       . . . .       . . . .       . . . . . .

|----------------------------------|
|----------------------------------|
|----------------------------------|
|----------------------------------|   4X
|------5-6-----3-5------2-3-----1-3|
|--0-0-5-6-0-0-3-5--0-0-2-3-0-0-1-3|
   . .     . .      . .     . . 

|-----------------------------------------------------------|
|-----------------------------------------------------------|
|-----------3-3-------------------------3-3-----------------|
|-----------3-3-----------3-3-----------3-3-----------------|	2X
|--0-0-0-0--1-1--0-0-0-0--3-3--0-0-0-0--1-1--0-1-0-1-0------|
|--0-0-0-0-------0-0-0-0--3-3--0-0-0-0-----------------0-2-3|
   . . . .       . . . .       . . . .       . . . . . .

|-------------------|
|-------------------|
|-------------------|
|-------------------|
|--0-0-0-1h--0-0-0-1|
|--0-0-0-----0-0-0--|
   . . .     . . .

|---------------------|
|---------------------|
|---------------------|
|---------------------| 4X
|--0-0-0-1h--0-0-0-0-1|
|--0-0-0-----0-0-0-0--|
   . . .     . . . .

|---------------------------------|
|---------------------------------|
|---------------------------------|
|---------------------------------|   4X
|------5-6-----3-5-----2-3-----1-3|
|--0-0-5-6-0-0-3-5-0-0-2-3-0-0-1-3|
   . .     . .     . .     . .

|---------------------------------------|
|---------------------------------------|
|---------------------------------------|
|---------------------------------------|
|--7-2-3-0--7-2-------------------------|
|--7-2-3-0--7-2-3-2-0-3-2-0-3-2-0-3-2-0-|
		. . . . . . . . . . . . 

|-------------------|
|-------------------|
|-------------------|
|-------------------| 
|--7-2-3-0--7-2-3-0-|
|--7-2-3-0--7-2-3-0-|

|---------------------------|
|---------------------------|
|---------------------------|
|---------------------------|     4X
|----------3-0---1-3---1----|
|--0-3-1-0-----1-----1---3-1|

|---------------------------|
|----------1----------------|
|----------------3-----3----|
|--0-3-1-0--3-1---3-1---3-1-|    2X
|---------------------------|
|---------------------------|

Guitar 1
|--------------------------------------|
|--8-10-11-10-11-11/13--10-11-10-------|
|--------------------------------10----|
|-----------------------------------12-|
|--------------------------------------|
|--------------------------------------|

|-------------------------------------------|
|--8-10-11-10-11-11/15-13-13-10-11-10-8-8/10|
|-------------------------------------------|
|-------------------------------------------|
|-------------------------------------------|
|-------------------------------------------|

|--------------------------------------|
|--8-10-11-10-11-11/13--10-11-10-------|
|--------------------------------10----|
|-----------------------------------12-|
|--------------------------------------|
|--------------------------------------|

|-------------------------------------------22---/---/---/---/---/----|
|--8-10-11-10-11-13-11-13-15-17-18-20-18-20-22---/---/---/---/---/----|
|------------------------------------------------/---/---/---/---/----|
|-------------------------------------------------tremolo-pick--------|
|------------------------------------------------/---/---/---/---/----|
|------------------------------------------------/---/---/---/---/----|

I dont know the next part of the solo

Guitar 2
|------------------------------3---|
|------3-------3-------3-----3---3-|
|----2-------2-------2-------------|
|----------------------------------| 2x
|----------------------------------|
|--0-------2-------3-------5-------|

|----------------------------------|
|----------------------------------|
|----------------------------------|
|----------------------------------|   4X
|------5-6-----3-5------2-3-----1-3|
|--0-0-5-6-0-0-3-5--0-0-2-3-0-0-1-3|
   . .     . .      . .     . .

|-----------------------------|
|-----------------------------|
|-----------3-3---------------|
|-----------3-3-----------3-3-| 4X
|--0-0-0-0--1-1--0-0-0-0--3-3-|
|--0-0-0-0-------0-0-0-0--3-3-|
   . . . .       . . . . 

|----------------------------------|
|----------------------------------|
|----------------------------------|
|----------------------------------|
|--------------------------3-5-6-5-|
|--0-0-0-0-0-0-0-0-0-0-0-0---------|
   . . . . . . . . . . . .

|--------------------------------|
|--------------------------------|
|--------------------------------|
|--------------------------------|
|--------------------------0-3-5-|
|--0-0-0-0-0-0-0-0-0-0-0-0-------|
   . . . . . . . . . . . .

|---------------------------|
|---------------------------|
|------5-5-5-5-5----5-5-5-5-|
|------5-5-5-5-5----5-5-5-5-|  4x
|------3-3-3-3-3----3-3-3-3-|
|---------------------------|

Guitar 1 & 2

|---------------------------------------|
|---------------------------------------|
|---------------------------------------|
|---------------------------------------|
|--7-2-3-0--7-2-------------------------|
|--7-2-3-0--7-2-3-2-0-3-2-0-3-2-0-3-2-0-|
		. . . . . . . . . . . . 

|-------------------|
|-------------------|
|-------------------|
|-------------------| 
|--7-2-3-0--7-2-3-0-|
|--7-2-3-0--7-2-3-0-|

*Short notes*
|-------------------|
|-------------------|
|-------------------|
|-------------------| 2X
|--7-2-3-0--7-2-3-0-|
|--7-2-3-0--7-2-3-0-|

|-------------------------------------------------------------|
|-------------------------------------------------------------|
|-------------------------------------------------------------|
|-------------------------------------------------------------|
|--0-0-5/6--0-0-6/7--0-0-7/8--0-0-8/9--0-0-9/10--0-0-10/11-12-|
|--0-0-5/6--0-0-6/7--0-0-7/8--0-0-8/9--0-0-9/10--0-0-10/11-12-|
Добавлено: 13.03.2012
Другие материалы по этой песне:
  • Аккорды и текст

Страница создана 13.03.2012
http://primanota.ru/stinkhole/in-fur-the-kill-chords.htm
Привет, Гость.
Предлагаем пройти революционный курс по гитаре.
Подарок от PrimaNota.Ru, забирай!