PrimaNota.ru - самый крупный в мире бесплатный архив песенных текстов, аккордов, табулатур и нот


Sting - Tea In The Sahara Walking On The Moon - бас-таба, видео

Регистрация Запомнить меня
Войти через:  Facebook Google Twitter Vk Yandex Mail.ru

Sting - Tea In The Sahara Walking On The Moon - бас-таба, видео

Печатать
Просмотров: 355
Уроки эстрадного вокала в Санкт-Петербурге
Artist|Sting.
Song|Tea In The Sahara/Walking On The Moon(unplugged).
Album|N/A,(MTV Programme "Unplugged").
Tabbed by|Toneie.

Intro|\Tea In The Sahara. (Notes in( )play as required throughout.)
G|----|----|----|-----|----|----|----|----|-----|-----|----|-----|
D|----|----|----|-----|----|----|----|----|-----|-----|----|-----|
A|4424|-2-2|4424|-2--2|4424|-2-2|4-24|-2-2|4424~|----2|424~|--2-2|
E|----|----|----|---4-|----|--4-|----|--4-|-----|-2-4-|----|---4-|

G|----|-----|----|----|
D|----|-----|----|----|
A|424~|--2-2|424~|2---|
E|----|---4-|----|----|

Verses|#,1,2&3. 
G|----|----|----|----|----|------|----|------|
D|----|----|----|----|----|------|----|------|
A|----|----|----|----|----|------|----|------|
E|2-2-|2-2/|5-5-|5-5\|2-2-|2-(24)|5-5-|5-5(0)|

Chorus|#,1,2&3.     
D||:--------|------|----------|--------:||
G||:--------|------|---7(\)---|---9(\)-:||
A||:(7)--7--|--7(\)|----------|--------:||
E||:--0-----|0-----|5------(5)|7-------:||

Middle|#,1.                      (Ghost notes.)
G|----|----|----|------|----|--2----4)|----|----|(To Verse & Chorus#,2.)
D|----|----|----|------|----|---(646--|----|----|
A|424-|2--2|424-|-----2|4424|---------|424-|2\--|
E|----|--4-|----|0-2-4-|----|---------|----|----|

Middle|#,2.
G|----|----|----|-----|----|----|-----|----|------|----|----|
D|----|----|----|-----|-2--|----|-----|----|------|2---|----|
A|44--|-2--|424-|22424|---2|424\|----2|424~|---242|-424|2---|
E|----|----|----|-----|----|----|0-24-|----|024---|----|----|

G|----|-----|----|----|(To Verse & Chorus#,3.)
D|----|-----|----|----|
A|2424|-2--2|424-|-2~~|
E|----|---4-|----|----|

Intro|/Walking On The Moon.
G|----|----|----|----|----|----|----|----|----|----|
D|----|----|----|----|----|----|----|----|----|----|
A|2-4-|---2|24--|---2|24--|--42|24--|---2|24--|---2|
E|----|----|----|----|----|----|----|----|----|----|

Verse|                                                     
G||:----|----|-------|------|----|----|----|----|----|----:||
D||:----|----|-------|------|----|----|----|----|----|----:||
A||:24--|---2|24(\)-2|24---2|24-~|---2|24--|---2|24--|---2:||
E||:----|----|-------|--(4)-|----|----|----|----|----|----:||

Lead to chorus|
G|----|
D|-444|
A|4---|
E|----|

Chorus|
G|-----|------|-----|----|-----|--------|-----|------|-----|-----|
D|-----|------|-----|----|-----|-------9|-----|------|-----|-----|
A|-----|7777--|-----|999\|-----|7777-7\-|-----|9\9\9\|-----|7777~|
E|555-7|-----5|777-7|----|555-7|--------|777-7|------|555-7|----5|

G|-----|-----|-----|------|------|
D|-----|-----|-----|------|------|
A|-----|99-9\|-----|777-7\|222-22|
E|777-7|-----|55-5\|------|------|

Outro|#,1.
G||:----|----|----|----|----|----:||
D||:----|--21|----|----|--21|----:||
A||:24--|----|2--2|24--|----|2---:||
E||:----|----|----|----|----|----:||

Outro|#,2. (Ghost notes.)   (Last bar,Few!) 
G||:--------|--------:||    G|------|
D||:--------|--------:||    D|------|
A||:--------|--------:||    A|------|
E||:(5)-(5)-|(5)-(5)-:||    E|(5)---|

Note|This can be found on the"If I Ever Lose My Faith In You"c.d single!
Добавлено: 10.09.2013
Другие материалы по этой песне:
  • Аккорды и текст

Страница создана 10.09.2013
http://primanota.ru/sting/tea-in-the-sahara-walking-on-the-moon-chords.htm
Привет, Гость.
Предлагаем пройти революционный курс по гитаре.
Подарок от PrimaNota.Ru, забирай!