PrimaNota.ru - самый крупный в мире бесплатный архив песенных текстов, аккордов, табулатур и нот


Sting - Something The Boy Said - текст песни, бас-таба, видео

Регистрация Запомнить меня
Войти через:  Facebook Google Twitter Vk Yandex Mail.ru

Sting - Something The Boy Said - текст песни, бас-таба, видео

Печатать
Просмотров: 275
Уроки эстрадного вокала в Санкт-Петербурге
Artist: Sting
Song:   Something The Boy Said
Album:  Ten Summoner's Tales

(Tabbed by Oli - oli@elepost.de)


This tablature is a helping sketch. It doesn't contain the correct 
sort of bars and notes. Nevertheless, I'm sure you'll be able to 
figure out and I hope it will help you!


  INTRO:
G|-------------------------------|
D|-------------------------------|
A|----------1~-------------------| 8x
E|--3-33--3----------------------|


  VERSE 1:
G|-------------------------------|
D|-------------------------------|
A|----------1~-------------------| 6x
E|--3-33--3----------------------|

G|-------------------------------|
D|----(3~)-----------------------|
A|--1~-----3~--------------------|
E|-----1~------------------------|

G|-------------------------------|
D|-------------------------------|
A|----------1~-------------------| 2x
E|--3-33--3----------------------|

G|-------------------------------|
D|----(3~)-----------------------|
A|--1~-----3~--------------------|
E|-----1~------------------------|


  TRANSITION TO REFRAIN:
G|-------------------------------|
D|-------------------------------|
A|-----6~----6~----6~--4~--6~----|
E|--6~----6~----6~---------------|

  REFRAIN:
G|-------------------------------|
D|---(0)--(0)--(0)---030---------|
A|-------1----3-----3------------| 4x
E|--3----------------------------|


  VERSE 2:
G|----------3~-------------------|
D|--5-55--5----------------------|
A|-------------------------------| 6x
E|-------------------------------|

G|-------------------------------|
D|----(3~)-----------------------|
A|--1~-----3~--------------------|
E|-----1~------------------------|


  TRANSITION TO REFRAIN:
G|-------------------------------|
D|-------------------------------|
A|-----6~----6~----6~--4~--6~----|
E|--6~----6~----6~---------------|

  REFRAIN:
G|-------------------------------|
D|---(0)--(0)--(0)---030---------|
A|-------1----3-----3------------| 4x
E|--3----------------------------|


  INTERLUDE:
G|------------2-0-4--245--420----|
D|--------0-2--------------------|
A|------23-----------------------|
E|--0--0-------------------------|


  TRANSITION TO VERSE 3:
G|-------------------------------|
D|-------------------------------|
A|----------1~-------------------| 4x
E|--3-33--3----------------------|

  VERSE 3:
G|-------------------------------|
D|-------------------------------|
A|----------1~-------------------| 8x
E|--3-33--3----------------------|


  TRANSITION TO REFRAIN:
G|-------------------------------|
D|-------------------------------|
A|-----6~----6~----6~--4~--6~----|
E|--6~----6~----6~---------------|

  REFRAIN:
G|-------------------------------|
D|---(0)--(0)--(0)---030---------|
A|-------1----3-----3------------| 8x
E|--3----------------------------|


  FADE OUT:
G|-------------------------------|
D|-------------------------------|
A|----------1~-------------------| 5x
E|--3-33--3-----3-33-3-----------|
Добавлено: 21.03.2012
Другие материалы по этой песне:
  • Аккорды и текст

Страница создана 21.03.2012
http://primanota.ru/sting/something-the-boy-said-chords.htm
Привет, Гость.
Предлагаем пройти революционный курс по гитаре.
Подарок от PrimaNota.Ru, забирай!