PrimaNota.ru - самый крупный в мире бесплатный архив песенных текстов, аккордов, табулатур и нот


Sting - Nothing Bout Me - текст песни, бас-таба, видео

Регистрация Запомнить меня
Войти через:  Facebook Google Twitter Vk Yandex Mail.ru

Sting - Nothing Bout Me - текст песни, бас-таба, видео

Печатать
Просмотров: 197
Уроки эстрадного вокала в Санкт-Петербурге
Artist: Sting
Song:   Nothing 'bout Me
Album:  Ten Summoner's Tales


(Tabbed by Oli - oli@elepost.de)


This tablature is a helping sketch. It doesn't contain the correct 
sort of bars and notes. Nevertheless, I'm sure you'll be able to 
figure out and I hope it will help you!


  INTRO:
G|------------------------------------------------------------------------|
D|----5-8---876--------------5--8---876-----------------------------------|
A|--6-----6-------8-6-----66------6------8-6------------------------------|
E|--------------8----86----------------8----86----------------------------|

G|------------------------------5-----------------------------------------|
D|----5-8---876--------------5----876-------------------------------------|
A|--6-----6-------8-6-----66----------8-6---------------------------------|
E|--------------8----86--------------8----86------------------------------|



  VERSE 1:
G|------------------------------------------------------------------------|
D|----5-8---76-------------5--8---76--------------------------------------|
A|--6-----6------8-6----66------6-----8-6---------------------------------|
E|-------------8----86--------------8----86-------------------------------|

G|------------------------------------------------------------------------|
D|----5-8---76-------------5--8---76--------------------------------------|
A|--66----6-----8-6-----66------6----8-6----------------------------------|
E|-------------8----86------------ -8----86-------------------------------|

G|------5-----------------------------------------------------------------|
D|----5---876-6-7---------------------------------------------------------|
A|--6---------------1-2-3----1-2-3----------------------------------------|
E|-----------------------3--------3---------------------------------------|
                    And you still know nothing 'bout me...

  VERSE 2:
G|------------------------------------------------------------------------|
D|----5-8---76-------------5--8---76--------------------------------------|
A|--6-----6------8-6----66------6-----8-6---------------------------------|
E|-------------8----86--------------8----86-------------------------------|

G|------------------------------------------------------------------------|
D|----5-8---76-------------5--8---76--------------------------------------|
A|--66----6-----8-6-----66------6----8-6----------------------------------|
E|-------------8----86------------ -8----86-------------------------------|

G|------5-----------------------------------------------------------------|
D|----5---876-6-7----------------------------3-3-1~-----------------------|
A|--6---------------1-2-3----1-2-3----1-2-3-------------------------------|
E|-----------------------3--------3--------3------------------------------|
                    And you still know nothing 'bout me...


  INTERLUDE:
G|------------------------------------------------------------------------|
D|------------------------------------------------------------------------|
A|----------4-4-6~----------4-4-6~----------4-4-6~-----------4-4-6~-------|
E|--2-2-4~----------2-2-4~----------2-2-4~-----------2-2-4~---------------|
  You don't need to read...


  INSTRUMENTAL INTERLUDE (AD LIB):
G|---------------------------------55-------------------------------------|
D|-----55-88---8766-------------55----8766--------------------------------|
A|--66-------6--------8-6----66--------------8-6--------------------------| 2x
E|------------------88---86----------------88---86------------------------|



  VERSE 3:
G|------------------------------------------------5-----------------------|
D|----5-8---76-------------5--8---76------------5---876-6-7---------------|
A|--6-----6------8-6----66------6-----8-6-----6---------------------------|
E|-------------8----86--------------8----86-------------------------------|


  OUTRO:
G|------------------------------------------------------------------------|
D|------------------------------------------------------------------------|
A|--1-2-3----1-2-3----1-2-3----1-2-3----1-2-3----1-2-3----1-2-3----1-2-3--|
E|-------3--------3--------3--------3--------3--------3--------3--------3-|
  And you still know nothing 'bout me...

G|------------------------------------------------------------------------|
D|----------0-1-2---------------------0-1-2-------------------0-1-2-3-4---|
A|--1-2-3-4-----------------0-1-2-3-4---------------0-1-2-3-4-------------|
E|----------------0-1-2-3-4-----------------1-2-3-4-----------------------|

G|--0-1-2-3-4-5-0-3-4-5-0-2-3-4-5-0-3-4-5-0-------------------------------|
D|------------------------------------------------------------------------|
A|------------------------------------------------------------------------|
E|------------------------------------------------------------------------|


Добавлено: 06.06.2012
Другие материалы по этой песне:
  • Аккорды и текст

Страница создана 17.05.2012
http://primanota.ru/sting/nothing-bout-me-chords.htm
Привет, Гость.
Предлагаем пройти революционный курс по гитаре.
Подарок от PrimaNota.Ru, забирай!