PrimaNota.ru - самый крупный в мире бесплатный архив песенных текстов, аккордов, табулатур и нот


Sting - Little Wing - текст песни, таба, видео

Регистрация Запомнить меня
Войти через:  Facebook Google Twitter Vk Yandex Mail.ru

Sting - Little Wing - текст песни, таба, видео

Печатать
Просмотров: 195
Авторы музыки: Jimi Hendrix
Авторы текста: Jimi Hendrix
Guitar solo from Sting's version of Little Wing
>From "Nothing like the sun"
Tabbed by Apurv Pandit (apurv_pandit@hotmail.com)

This is one of the finest solos on one of the finest versions of this ageless song by Hendrix.
Guitar tone is medium distortion with some chorus, and plenty of sustain.
The tab does not follow any time signature... just listen to the song as you play along.


... take anything you want from me... anything.....

|------------------------------------------------------------------------|
|------------------------------------------------------------------------|
|---------------------------------------------------------14B16R14P12-14B|
|------------------12----12/14~--~--~--~--~--~--~--~--~------------------|
|------10-12-12/14-------------------------------------------------------|
|10/12-------------------------------------------------------------------|
                                                                            

                                                                            
|------------------------------------------------------------------------|
|---------------------------------------------------------13-15----------|
|16R14P12-14~--~--~--~--~--~--~--~------12-14-14B-7---~--~------14B16R14P|
|---------------------------------12/14-----------5----------------------|
|------------------------------------------------------------------------|
|------------------------------------------------------------------------|
                                                                            

                                                                            
|------------------------------------------------------------------------|
|------15----------------------------------------------------------------|
|12-------14B16-12H14~12-11~--~11H12P11----------------------------11----|
|---14----------------------------------12-------------------12----12----|
|------------------------------------------12~--~12H14~--~--~12----------|
|------------------------------------------------------------------------|
                                                                            

                                                                            
|------------------------------------------------------------------------|
|10----10/15\14-14\13-12-------------------------------------15----15B17R|
|11----------------------12-------------12----12/14----14/16-------------|
|---------------------------12~--~--~--~---12----------------------------|
|------------------------------------------------------------------------|
|------------------------------------------------------------------------|
                                                                            

                                                                           
|-----------/15------------------------/12-13-15-14~---------------------|
|15P13-12-~--------------18-------------------------15----------10-------|
|---------------12~--~--~---15~--~--~------------------14-12-11~--------~|
|------------------------------------------------------------------12~---|
|------------------------------------------------------------------------|
|------------------------------------------------------------------------|
                                                                            

                                                                            
|------------------------12----------14----------15----------14----15----|
|------------------15----------15----------15----------15----------------|
|---------------12----14----14----14----14----14----14----14----14-------|
|------12-12H14----------------------------------------------------------|
|12H14-------------------------------------------------------------------|
|------------------------------------------------------------------------|
                                                                            

                                                                            
|17B19~--~--~--~--~--~--~--R17P15-17-19-15H17----15----------12-12-------|
|------------------------------------------------------15~---------------|
|---------------------------------------------------17-------------16P14P|
|------------------------------------------------------------------------|
|------------------------------------------------------------------------|
|------------------------------------------------------------------------|
                                                                            

                                                                            
|------------------------------------------------------------------------|
|------------------------------13-13-------------------------15----------|
|12-14-16-12H14~---12-14-14B16-------14B16R14P12-14-12-14B16----14B16R14P|
|------------------------------------------------------------------------|
|------------------------------------------------------------------------|
|------------------------------------------------------------------------|
                                                                            

                                                                            
|---15-------------------15---------------------------------------------/|
|------------------------------15----------------15~--------/15----------|
|12----14B16R14P12-14B16~--~16----12H14~12------------/14-12------/11----|
|------------------------------------------12~--~------------------------|
|------------------------------------------------------------------------|
|------------------------------------------------------------------------|
                                                                           

                                                                            
|14---------/13---------/15-------15-17-18-19-20-21-20B22~--~20B22---~--~|
|-----/12---------/14---------/17----------------------------------------|
|------------------------------------------------------------------------|
|------------------------------------------------------------------------|
|------------------------------------------------------------------------|
|------------------------------------------------------------------------|
                                                                            

                                                                            
|20B22-20B22-20B22-------------20B22R20-19B20R19-17----------------------|
|------------------18----18-------------------------20-19-17----17-------|
|---------------------19-------------------------------------19----17-19-|
|------------------------------------------------------------------------|
|------------------------------------------------------------------------|
|------------------------------------------------------------------------|
                                                                            

                                                                                
|------------------------------------------------------------------
|------------------------------------------------------------------
|------------------------------------------------------------------
|17-16-17-16-------------------------------------------------------
|------------17----------------------------------------------------
|---------------17-15-14-12~--~--~--~--~--~--~--~--~--------------- ... enter saxophone.


"668 : The neighbour of the beast."

Apurv Pandit
     
Добавлено: 07.09.2013
Другие материалы по этой песне:

Страница создана 11.03.2012
http://primanota.ru/sting/little-wing-chords.htm
Привет, Гость.
Предлагаем пройти революционный курс по гитаре.
Подарок от PrimaNota.Ru, забирай!