PrimaNota.ru - самый крупный в мире бесплатный архив песенных текстов, аккордов, табулатур и нот


Sting - Lazarus Heart - текст песни, бас-таба, перевод, видео

Регистрация Запомнить меня
Войти через:  Facebook Google Twitter Vk Yandex Mail.ru

Sting - Lazarus Heart - текст песни, бас-таба, перевод, видео

Печатать
Просмотров: 229
Уроки эстрадного вокала в Санкт-Петербурге
Artist: Sting
Song:   The Lazarus Heart
Album:  Nothing Like The Sun

(Tabbed by Oli - oli@elepost.de)


This tablature is a helping sketch. It doesn't contain the correct 
sort of bars and notes. Nevertheless, I'm sure you'll be able to 
figure out and I hope it will help you!



  INTRO:
G|---------------------|
D|---------------------|
A|--3-3--5~------------| 4x
E|---------------------|

G|---------------------|
D|---------------------|
A|--1-1--3~------------| 1x
E|---------------------|


  VERSE 1 (REPEATED THROUGHOUT THE VERSE):
G|---------------------|
D|---------------------|
A|--1-1--3~---01~------|
E|-----------3---------|


  REFRAIN:
G|-----------------------------------------------------------------------|
D|------3-3--3-2-3-2------------3---2-0----------------2--3--5--2-0------|
A|-------------------1--3---------------3-1--3-1-0------------------3-1--|
E|--1----1----------------0-1-3-------------------3-0---1--3-------------|
  Every day another miracle...

G|---------------------|
D|---------------------|
A|--1-1--3~------------| 1x
E|---------------------|


  VERSE 2 (REPEATED THROUGHOUT THE VERSE):
G|---------------------|
D|---------------------|
A|--1-1--3~---01~------|
E|-----------3---------|


  REFRAIN:
G|-----------------------------------------------------------------------|
D|------3-3--3-2-3-2------------3---2-0----------------2--3--5--2-0------|
A|-------------------1--3---------------3-1--3-1-0------------------3-1--|
E|--1----1----------------0-1-3-------------------3-0---1--3-------------|
  Every day another miracle...

G|---------------------|
D|---------------------|
A|--1-1--3~------------| 1x
E|---------------------|


  BRIDGE TO INTERLUDE:
G|---------------------|
D|---------------------|
A|--1-1--3~---01~------| 2x
E|-----------3---------|


  INTERLUDE:
G|------------------------------------5-3-2----------------------------------|
D|--------------------------------2-5-------5-2------------------------------|
A|--1-1--3~---013---------0-1-2-3--------------------------------------------|
E|-----------3----0-1-2-3----------------------------------------------------|


  VERSE 3:
G|---------------------|
D|---------------------|
A|--1-1--3~---01~------| 3x
E|-----------3---------|

G|---------------------|
D|---------------------|
A|---------------------|
E|--1~-----------------|

G|---------------------|
D|---------------------|
A|--1-1--3~---01~------| 2x
E|-----------3---------|

G|---------------------|
D|---------------------|
A|---------------------|
E|--1~-----------------|

G|---------------------|
D|---------------------|
A|--1-1--3~---01~------| 3x
E|-----------3---------|



  REFRAIN:
G|-----------------------------------------------------------------------|
D|------3-3--3-2-3-2------------3---2-0----------------2--3--5--2-0------|
A|-------------------1--3---------------3-1--3-1-0------------------3-1--|
E|--1----1----------------0-1-3-------------------3-0---1--3-------------|
  Every day another miracle...


G|---------------------|
D|---------------------|
A|--1-1--3~------------| 2x
E|---------------------|


  OUTRO (REPEATED UNTIL FADED OUT):
G|---------------------|
D|---------------------|
A|--1111--1-13---------|
E|-------3-3-----------|


Добавлено: 25.06.2012
Другие материалы по этой песне:
  • Аккорды и текст

Страница создана 21.02.2012
http://primanota.ru/sting/lazarus-heart-chords.htm
Привет, Гость.
Предлагаем пройти революционный курс по гитаре.
Подарок от PrimaNota.Ru, забирай!