PrimaNota.ru - самый крупный в мире бесплатный архив песенных текстов, аккордов, табулатур и нот


Sting - If You Love Somebody - бас-таба, видео

Регистрация Запомнить меня
Войти через:  Facebook Google Twitter Vk Yandex Mail.ru

Sting - If You Love Somebody - бас-таба, видео

Печатать
Просмотров: 150
Sting-If You Love Somebody

TablEdited by Jan Bjorklund
Tuning : E A D G 	Time Signature: 4/4

   |       |       |       |          |       |       |       |
||--------------------0-------2----|-----2---2---2---2---5-----------||
|*0-------0------------------------|-------------------------5-------*|
|*---------------------------------|---------------------------------*|
||---------------------------------|---------------------------------||

   |       |       |       |          |       |       |       |
||---------------------------------|----------------------------------|
|*---------------------------------|-------------------------0---4----|
|*2---2---2---2---2---2---2---2----|-2---2---2---2---2---4------------|
||---------------------------------|----------------------------------|

   |       |       |       |        >1|       |       |       |
|-0-------------------------------||---------------------------------||
|---------------------------------||---------------------------------*|
|---------------------------------||-------------------------0---0---*|
|-----3---3---3---3---3---3---3---||-3---3---3---3---3---3-----------||

 >2|       |       |       |          |       |       |       |
|----------------------------------||--------------------0---0---2----|
|----------------------------------|*0---0---0---0---0----------------|
|-0---0---0---0---0---0---0---0----|*---------------------------------|
|----------------------------------||---------------------------------|

   |       |       |       |          |       |       |       |
|-----2---2---2---2-------0-------||-0--------------------------------|
|-----------------------------3---*|----------------------------------|
|---------------------------------*|----------------------------------|
|---------------------------------||-----3---3---3---3---3---3---3----|

   |       |       |       |          |       |       |       |
|----------------------------------|-0--------------------------------|
|----------------------------------|----------------------------------|
|-------------------------0---0----|----------------------------------|
|-3---3---3---3---3---3------------|-----3---3---3---3---3---3---3----|

   |       |       |       |          |       |       |       |
|----------------------------------|----------------------------------|
|----------------------------------|----------------------------------|
|----------------------------------|----------------------------------|
|-1-----1-1------------------------|-1-----1-1------------------------|

   |       |       |       |          |       |       |       |
||---------------------------------|---------------------------------||
|*---------------------------------|---------------------------------||
|*---------------------------------|-3-----3-3-----------------------||
||0-----0-0------------------------|---------------------------------||

 >1|       |       |       |          |       |       |       |
|----------------------------------|---------------------------------||
|----------------------------------|---------------------------------*|
|----------------------------------|---------------------------------*|
|-3-----3-3------------------------|-1-----1-1-----------------------||

 >2|       |       |       |          |       |       |       |
||---------------------------------|----------------------------------|
|*---------------------------------|----------------------------------|
|*---------------------------------|----------------------------------|
||3-----3-3---------------3--------|-1-----1-1---------------1--------|

   |       |       |       |          |       |       |       |
|----------------------------------|---------------------------------||
|----------------------------------|---------------------------------*|
|----------------------------------|-3-----3-3---------------3-------*|
|-0-----0-0---------------0--------|---------------------------------||

   |       |       |       |          |       |       |       |
|---------------------0-------2----||---------------------------------|
|-0-------0------------------------|*------------------------0--------|
|----------------------------------|*2---2---2---2---2---4------------|
|----------------------------------||----------------------------2----|

   |       |       |       |          |       |       |       |
|----------------------------------|----------------------------------|
|----------------------------------|----------------------------------|
|----------------------------------|-------------------------0---0----|
|-3---3---3---3---3---3---3---3----|-3---3---3---3---3---3------------|

   |       |       |       |          |       |       |       |
|---------------------------------||---------------------0-------2----|
|---------------------------------*|-0-------0------------------------|
|-2---2---2---2---2---2---2---2---*|----------------------------------|
|---------------------------------||----------------------------------|

   |       |       |       |          |       |       |       |
|-----2---2---2---2---5------------|---------------------0-------2----|
|-------------------------5---3----|-0-------0------------------------|
|----------------------------------|----------------------------------|
|----------------------------------|----------------------------------|




Created with TablEdit http://www.tabledit.com/

     
Добавлено: 26.06.2013
Другие материалы по этой песне:
  • Аккорды и текст

Страница создана 26.06.2013
http://primanota.ru/sting/if-you-love-somebody-chords.htm
Привет, Гость.
Предлагаем пройти революционный курс по гитаре.
Подарок от PrimaNota.Ru, забирай!