PrimaNota.ru - самый крупный в мире бесплатный архив песенных текстов, аккордов, табулатур и нот


Sting - Brought To My Senses - таба, видео

Регистрация Запомнить меня
Войти через:  Facebook Google Twitter Vk Yandex Mail.ru

Sting - Brought To My Senses - таба, видео

Печатать
Просмотров: 152
As recorded by STING



Words by STING Music by STING 

Transcribed by terry.mcgrory@talk21.com



  M.M. = 110
|-----------------------|-----------------------|
|------3----------3--2--|------3----------3--2--|
|----2----2-----2-------|----2----2-----2-------|
|-0---------------------|-----------------------|
|-----------------------|------------0----------|
|------------2----------|-3---------------------|


|-----------------------|--------------------------||---|
|------3----------3--2--|------3----------3--2-----||o--|
|---------2-------------|---------2----------------||---|
|----4----------4-------|----4----------2----------||---|
|-2---------------------|-2----------0-------------||o--|
|------------2----------|--------------------------||---|


|------3----------3--2--|------3----------3--2--|
|----3----3-----3-------|----3----3-----3-------|
|-----------------------|-----------------------|
|-----------------------|------------0----------|
|------------2----------|-3---------------------|
|-3---------------------|-----------------------|


  1.
|------3----------3--2--|------3----------3--2-----||--|
|----3----3-----3-------|----3----3-----3---------o||--|
|-----------------------|--------------------------||--|
|-2---------------------|------------0-------------||--|
|------------2----------|-3-----------------------o||--|
|-----------------------|--------------------------||--|


  2.
|------2----------0-----|------3----------3--2----||---|
|----1----1-----0----0--|----3----3-----3---------||o--|
|-----------------------|-------------------------||---|
|-1----------2----------|------------0------------||---|
|-----------------------|-3-----------------------||o--|
|-----------------------|-------------------------||---|


|-7--|-5--|-3--|-2---||-7--5------7--||----------||--|
|-8--|-6--|-5--|-4--o||-8--6--10--7--||o-5--2---o||--|
|-7--|-5--|-4--|-2---||-7--5---9--8--||--3--0----||--|
|-9--|-7--|-5--|-4---||-9--7---8--7--||--5--2----||--|
|-7--|-5--|-3--|-2--o||-7--5---9--9--||o-4--1---o||--|
|----|----|----|-----||-----------7--||----------||--|
Добавлено: 03.05.2012
Другие материалы по этой песне:
  • Аккорды и текст

Страница создана 03.05.2012
http://primanota.ru/sting/brought-to-my-senses-chords.htm
Привет, Гость.
Предлагаем пройти революционный курс по гитаре.
Подарок от PrimaNota.Ru, забирай!