PrimaNota.ru - самый крупный в мире бесплатный архив песенных текстов, аккордов, табулатур и нот


Stiltskin - Inside - аккорды и текст, таба, бас-таба, драм-таба, видео

Регистрация Запомнить меня
Войти через:  Facebook Google Twitter Vk Yandex Mail.ru

Stiltskin - Inside - аккорды и текст, таба, бас-таба, драм-таба, видео

Печатать
Просмотров: 837
Авторы музыки: Peter Lawlor
Авторы текста: Peter Lawlor
Inside
Stiltskin
		   Inside - Stiltskin
lyrics corrected by J.D.Smalley (mauqp@csv.warwick.ac.uk)


Transcribed by Alan D Shaw  shawad@dcs.gla.ac.uk>  --- till the end june '94

I'm not claiming this to be 100% perfect, but it sounds ok to me.
If you find any definite errors, or alternatives, let me know.

There are two versions, the first is the original single version, and the
second is the extended remix (The way it is in the Levi's ad).

Single Version:

Choir Intro
Rhythm Fig 1
Rhythm Fig 3 x4 - Verse
Rhythm Fig 2 x4 - Pre-Chorus
Rhythm Fig 1 x2 - Chorus
Muted E-String break
Rhythm Fig 3 x4 - Verse
Rhythm Fig 2 x4 - Pre-Chorus
Rhythm Fig 1 x2 - Chorus
Solo (1st line only!)
Rhythm Fig 2 x2
Bass break
Rhythm Fig 1 until end

Extended Version (The one from the ad!)

Choir Intro
Rhythm Fig 1
Rhythm Fig 2 x2
Bass break
Rhythm Fig 1
Rhythm Fig 3 x4
Rhythm Fig 2 x4
Rhythm Fig 1 x2
Muted E-string break
Rhythm Fig 3 x4
Rhythm Fig 2 x4
Rhythm Fig 1 x2
Solo (All 3 lines)
Rhythm Fig 2 x2
Bass break
Rhythm Fig 1 until end


Rhythm Fig 1
|------------------|------------------|------------------|------------------|
|------------------|------------------|------------------|------------------|
|----------0---2---|------------------|------------------|------------------|
|--0---4-----------|----------0---2---|--2---------------|-(2)------0-------|
|------------------|--0---4-----------|------------------|--------------2---|
|------------------|------------------|------------------|------------------|
   1 . 2 . 3 . 4 .    1 . 2 . 3 . 4 .    1 . 2 . 3 . 4 .    1 . 2 . 3 . 4 .


|------------------|------------------|------------------|------------------|
|------------------|------------------|------------------|------------------|
|----------0---2---|------------------|------------------|------------------|
|--0---4-----------|----------0---2---|--2---------------|-(2)--------------|
|------------------|--0---4-----------|------------------|------------------|
|------------------|------------------|------------------|------------------|
   1 . 2 . 3 . 4 .    1 . 2 . 3 . 4 .    1 . 2 . 3 . 4 .    1 . 2 . 3 . 4 .

End Rhythm Fig 1


Rhythm Fig 2
|----------x-x-x-x-|----------x-x-x-x-|------------------|------------------|
|----------x-x-x-x-|----------x-x-x-x-|------------------|------------------|
|----------x-x-x-x-|----------x-x-x-x-|--2---2-------5---|-(5)--------------|
|--2---2---x-x-x-x-|--5---5---x-x-x-x-|--2---2-------5---|-(5)--------------|
|--2---2---x-x-x-x-|--5---5---x-x-x-x-|--0---0-------3---|-(3)--------------|
|--0---0---x-x-x-x-|--3---3---x-x-x-x-|------------------|------------------|
   1 . 2 . 3 . 4 .    1 . 2 . 3 . 4 .    1 . 2 . 3 . 4 .    1 . 2 . 3 . 4 .

End Rhythm Fig 2

Note: The muted strings after the G5 sound best over the 3rd fret


Rhythm Fig 3
|------------------|------------------|------------------|------------------|
|------------------|------------------|------------------|------------------|
|------------------|----------5-------|------------------|----------5-------|
|------------------|------5-----5-----|----------2-------|------5-----5-----|
|----------2---0---|--3-----3-----3---|--0---0-------0---|--3-----3-----3---|
|--0---0-----------|------------------|------------------|------------------|
   1 . 2 . 3 . 4 .    1 . 2 . 3 . 4 .    1 . 2 . 3 . 4 .    1 . 2 . 3 . 4 .

w/harmonics on 12 fret ad lib

End Rythm Fig 3

Solo
|------------------|------------------|------------------|------------------|
|.-----------------|------------------|------------------|-----------------.|
|------------------|------------------|------------------|------------------|
|.-2-------2---0---|--2/5----\2---0---|--2/5----\2---0---|--2/5-----7---\--.|
|------------------|------------------|------------------|------------------|
|------------------|------------------|------------------|------------------|
   1 . 2 . 3 . 4 .    1 . 2 . 3 . 4 .    1 . 2 . 3 . 4 .    1 . 2 . 3 . 4 .

The following 2 lines are only played in the extended version

|------------------|------------------|------------------|------------------|
|------------------|------------------|---/-----\--------|------------------|
|--4-----------4-5-|--4-----------4-5-|--5-------5---4---|--4-5-4-----------|
|------------------|------5-----------|------------------|----------5-------|
|------------------|------------------|------------------|------------------|
|------------------|------------------|------------------|------------------|
   1 . 2 . 3 . 4 .    1 . 2 . 3 . 4 .    1 . 2 . 3 . 4 .    1 . 2 . 3 . 4 .


|------------------|------------------|------------------|------------------|
|------------------|------------------|------------------|------------------|
|------------------|------------------|------------------|------------------|
|--5---7---7---5---|--5---4---4---5---|--5---4---4---5---|--5---4---4-5-4---|
|------------------|------------------|------------------|------------------|
|------------------|------------------|------------------|------------------|
   1 . 2 . 3 . 4 .    1 . 2 . 3 . 4 .    1 . 2 . 3 . 4 .    1 . 2 . 3 . 4 .

End Solo



STILTSKIN - INSIDE

   [choir]                                               (fade in)
|---------------------------------------------------------------------------|
|---------------------------------------------------------------------------|
|---------------------------------------------------------------------------|
|------------------------------------------------------------12-------------|
|---------------------------------------------------------------------------|
|---------------------------------------------------------------------------|

  D                   A                 E
|------------------|-----------------|-----------------|--------------------|
|------------------|-----------------|-----------------|--------------------|
|------------------|-----------------|--9------9-----x-|--9--9--9--9--------|
|----4--5--7-------|-----------------|--9------9-----x-|--9--9--9--9--------|
|-5----------------|-----4--5--7-----|--7------7-----x-|--7--7--7--7--------|
|------------------|--5--------------|-----------------|--------------------|

  D                   A                 E
|------------------|-----------------|-----------------|--------------------|
|------------------|-----------------|-----------------|--------------------|
|------------------|-----------------|--9------9-----x-|--9--9--9--9--------|
|----4--5--7-------|-----------------|--9------9-----x-|--9--9--9--9--------|
|-5----------------|-----4--5--7-----|--7------7-----x-|--7--7--7--7--------|
|------------------|--5--------------|-----------------|--------------------|

  E                   C                 A                 C      D
|-(guitar)---------|-----------------|-----------------|------------12------|
|-12---------------|-----------------|-----------------|---------12---------|
|------------------|-----------------|-----------------|--------------------|
|------------------|-----------------|-----------------|--------------------|
|-(bass)-----------|--3--3---3---3---|-----------------|--3--3---5--5-------|
|-0--0--0---0------|-----------------|--5---5--5---5---|--------------------|

  E                   C                 A                 C      D
|------------------|-----------------|-----------------|--------------------|
|-12---------------|-----------------|-----------------|--------------------|
|------------------|-----------------|-----------------|--------------------|
|------------------|-----------------|-----------------|--------------------|
|------------------|--3--3---3---3---|-----------------|--3--3---5--5-------|
|-0--0--0---0------|-----------------|--5---5--5---5---|--------------------|
  Swing low in the darkless hour     you turn and cower see it turned to dust

  E                   C                 A                 C      D
|------------------|-----------------|-----------------|--------------------|
|-12---------------|-----------------|-----------------|--------------------|
|------------------|-----------------|-----------------|--------------------|
|------------------|-----------------|-----------------|--------------------|
|------------------|--3--3---3---3---|-----------------|--3--3---5--5-------|
|-0--0--0---0------|-----------------|--5---5--5---5---|--------------------|
     move on the stoned dark night   we take  to flight snowfall turns to rust


  E                   C                 A                 C      D
|------------------|-----------------|-----------------|--------------------|
|f12---------------|f12--------------|-----------------|--------------------|
|------------------|-----------------|-----------------|--------------------|
|------------------|-----------------|-----------------|--------------------|
|------------------|--3--3---3---3---|-----------------|--3--3---5--5-------|
|-0--0--0---0------|-----------------|--5---5--5---5---|--------------------|
    seeing in the fusion light    like a nursing rhyme  fat man starts to fall

  E                   C                 A                 C      D
|------------------|-----------------|-----------------|--------------------|
|------------------|-----------------|-----------------|--------------------|
|------------------|-----------------|-----------------|--------------------|
|------------------|-----------------|-----------------|--------------------|
|------------------|--3--3---3---3---|-----------------|--3--3---5--5-------|
|-0--0--0---0------|-----------------|--5---5--5---5---|--------------------|
  Here in a           hostile place    I hear your face         start to call

[bridge]
  E                   G                 A                 C
|------------------|-----------------|-----------------|--------------------|
|------------------|-----------------|-----------------|--------------------|
|-9-9--x--x--x-----|-----------------|-----------------|--------------------|
|-9-9--x--x--x-----|--5-5--x--x--x---|--7--7-------(7)-|-10-----------------|
|-7-7--x--x--x-----|--5-5--x--x--x---|--7--7-------(7)-|-10-----------------|
|------------------|--3-3--x--x--x---|--5--5-------(5)-|--8-----------------|
       And if I    think that I've been loosing my       way

  E                   G                 A                 C
|------------------|-----------------|-----------------|--------------------|
|------------------|-----------------|-----------------|--------------------|
|-9-9--x--x--x-----|-----------------|-----------------|--------------------|
|-9-9--x--x--x-----|--5-5--x--x--x---|--7--7-------(7)-|-10-----------------|
|-7-7--x--x--x-----|--5-5--x--x--x---|--7--7-------(7)-|-10-----------------|
|------------------|--3-3--x--x--x---|--5--5-------(5)-|--8-----------------|
       that's        because I'm      slightly   blid    -ed

  E                   G                 A                 C
|------------------|-----------------|-----------------|--------------------|
|------------------|-----------------|-----------------|--------------------|
|-9-9--x--x--x-----|-----------------|-----------------|--------------------|
|-9-9--x--x--x-----|--5-5--x--x--x---|--7--7-------(7)-|-10-----------------|
|-7-7--x--x--x-----|--5-5--x--x--x---|--7--7-------(7)-|-10-----------------|
|------------------|--3-3--x--x--x---|--5--5-------(5)-|--8-----------------|
       And if you    think that I don't make too much sense
  E                   G                 A                 C
|------------------|-----------------|-----------------|--------------------|
|------------------|-----------------|-----------------|--------------------|
|-9-9--x--x--x-----|-----------------|-----------------|--------------------|
|-9-9--x--x--x-----|--5-5--x--x--x---|--7--7-------(7)-|-10-----------------|
|-7-7--x--x--x-----|--5-5--x--x--x---|--7--7-------(7)-|-10-----------------|
|------------------|--3-3--x--x--x---|--5--5-------(5)-|--8-----------------|
       that's        because I'm       broken     mind-  ed.

[Verse]
  D                   A                 E
|------------------|-----------------|-----------------|--------------------|
|------------------|-----------------|-----------------|--------------------|
|------------------|-----------------|--9------9-----x-|--9--9--9--9--------|
|----4--5--7-------|-----------------|--9------9-----x-|--9--9--9--9--------|
|-5----------------|-----4--5--7-----|--7------7-----x-|--7--7--7--7--------|
|------------------|--5--------------|-----------------|--------------------|
                                              Do--   n't k--e--e--p  it

  D                   A                 E
|------------------|-----------------|-----------------|--------------------|
|------------------|-----------------|-----------------|--------------------|
|------------------|-----------------|--9------9-----x-|--9--9--9--9--------|
|----4--5--7-------|-----------------|--9------9-----x-|--9--9--9--9--------|
|-5----------------|-----4--5--7-----|--7------7-----x-|--7--7--7--7--------|
|------------------|--5--------------|-----------------|--------------------|
                                                          inside

  D                   A                 E
|------------------|-----------------|-----------------|--------------------|
|------------------|-----------------|-----------------|--------------------|
|------------------|-----------------|--9------9-----x-|--9--9--9--9--------|
|----4--5--7-------|-----------------|--9------9-----x-|--9--9--9--9--------|
|-5----------------|-----4--5--7-----|--7------7-----x-|--7--7--7--7--------|
|------------------|--5--------------|-----------------|--------------------|
                                               if you believe it

  D                   A                 E
|------------------|-----------------|-----------------|--------------------|
|------------------|-----------------|-----------------|--------------------|
|------------------|-----------------|--9------9-----x-|--9--9--9--9--------|
|----4--5--7-------|-----------------|--9------9-----x-|--9--9--9--9--------|
|-5----------------|-----4--5--7-----|--7------7-----x-|--7--7--7--7--------|
|------------------|--5--------------|-----------------|--------------------|
           Don't keep it all inside

|------------------|-----------------|
|------------------|-----------------|
|------------------|-----------------|
|-(bass)-----------|-----------------|
|-7--7---7---7-----|--7--7---7---7---|
|------------------|-----------------|

  E                   C                 A                 C      D
|-12---------------|-----------------|-----------------|--------------------|
|----12------------|-----------------|-----------------|--------------------|
|------------------|-----------------|-----------------|--------------------|
|------------------|-----------------|-----------------|--------------------|
|------------------|--3--3---3---3---|-----------------|--3--3---5--5-------|
|-0--0--0---0------|-----------------|--5---5--5---5---|--------------------|
     Strong words  in a gange sky      I have to lie   shadows moving past

  E                   C                 A                 C      D
|------------------|-----------------|-----------------|--------------------|
|------------------|-----------------|-----------------|--------------------|
|------------------|-----------------|-----------------|--------------------|
|------------------|-----------------|-----------------|--------------------|
|------------------|--3--3---3---3---|-----------------|--3--3---5--5-------|
|-0--0--0---0------|-----------------|--5---5--5---5---|--------------------|
 ring out from the blue sports car   in the shooting yard looking to the task


  E (synth)           C (synth)         A                 C      D
|------------------|-----------------|-----------------|--------------------|
|------------------|-----------------|-----------------|--------------------|
|------------------|-----------------|-----------------|--------------------|
|------------------|-----------------|-----------------|--------------------|
|------------------|--3--3---3---3---|-----------------|--3--3---5--5-------|
|-0--0--0---0------|-----------------|--5---5--5---5---|--------------------|
   out of the black slate time we're moving line but never reach an end

  E (synth)           C (synth)         A (synth)         C      D
|------------------|-----------------|-----------------|--------------------|
|------------------|-----------------|-----------------|--------------------|
|------------------|-----------------|-----------------|--------------------|
|------------------|-----------------|-----------------|--------------------|
|------------------|--3--3---3---3---|-----------------|--3--3---5--5-------|
|-0--0--0---0------|-----------------|--5---5--5---5---|--------------------|
  falling along straight town as the ice comes down     river starts to bend

[bridge]
  E                   G                 A                 C
|------------------|-----------------|-----------------|--------------------|
|------------------|-----------------|-----------------|--------------------|
|-9-9--x--x--x-----|-----------------|-----------------|--------------------|
|-9-9--x--x--x-----|--5-5--x--x--x---|--7--7-------(7)-|-10-----------------|
|-7-7--x--x--x-----|--5-5--x--x--x---|--7--7-------(7)-|-10-----------------|
|------------------|--3-3--x--x--x---|--5--5-------(5)-|--8-----------------|
       And if you    think that I've been loosing my       way

  E                   G                 A                 C
|------------------|-----------------|-----------------|--------------------|
|------------------|-----------------|-----------------|--------------------|
|-9-9--x--x--x-----|-----------------|-----------------|--------------------|
|-9-9--x--x--x-----|--5-5--x--x--x---|--7--7-------(7)-|-10-----------------|
|-7-7--x--x--x-----|--5-5--x--x--x---|--7--7-------(7)-|-10-----------------|
|------------------|--3-3--x--x--x---|--5--5-------(5)-|--8-----------------|
       that's        because I'm am    slightly    blind-  ed.

  E                   G                 A                 C
|------------------|-----------------|-----------------|--------------------|
|------------------|-----------------|-----------------|--------------------|
|-9-9--x--x--x-----|-----------------|-----------------|--------------------|
|-9-9--x--x--x-----|--5-5--x--x--x---|--7--7-------(7)-|-10-----------------|
|-7-7--x--x--x-----|--5-5--x--x--x---|--7--7-------(7)-|-10-----------------|
|------------------|--3-3--x--x--x---|--5--5-------(5)-|--8-----------------|
       And if you    think that I don't make to much sense

  E                   G                 A                 C
|------------------|-----------------|-----------------|--------------------|
|------------------|-----------------|-----------------|--------------------|
|-9-9--x--x--x-----|-----------------|-----------------|--------------------|
|-9-9--x--x--x-----|--5-5--x--x--x---|--7--7-------(7)-|-10-----------------|
|-7-7--x--x--x-----|--5-5--x--x--x---|--7--7-------(7)-|-10-----------------|
|------------------|--3-3--x--x--x---|--5--5-------(5)-|--8-----------------|
       that's        because I'm       broken     mind-  ed.

[Verse]
  D                   A                 E
|------------------|-----------------|-----------------|--------------------|
|------------------|-----------------|-----------------|--------------------|
|------------------|-----------------|--9------9-----x-|--9--9--9--9--------|
|----4--5--7-------|-----------------|--9------9-----x-|--9--9--9--9--------|
|-5----------------|-----4--5--7-----|--7------7-----x-|--7--7--7--7--------|
|------------------|--5--------------|-----------------|--------------------|
                                              Do--   n't k--e--e--p  it

  D                   A                 E
|------------------|-----------------|-----------------|--------------------|
|------------------|-----------------|-----------------|--------------------|
|------------------|-----------------|--9------9-----x-|--9--9--9--9--------|
|----4--5--7-------|-----------------|--9------9-----x-|--9--9--9--9--------|
|-5----------------|-----4--5--7-----|--7------7-----x-|--7--7--7--7--------|
|------------------|--5--------------|-----------------|--------------------|
                                                          inside

  D                   A                 E
|------------------|-----------------|-----------------|--------------------|
|------------------|-----------------|-----------------|--------------------|
|------------------|-----------------|--9------9-----x-|--9--9--9--9--------|
|----4--5--7-------|-----------------|--9------9-----x-|--9--9--9--9--------|
|-5----------------|-----4--5--7-----|--7------7-----x-|--7--7--7--7--------|
|------------------|--5--------------|-----------------|--------------------|
                                               if you believe it

  D                   A                 E
|------------------|-----------------|-----------------|--------------------|
|------------------|-----------------|-----------------|--------------------|
|------------------|-----------------|--9------9-----x-|--9--9--9--9--------|
|----4--5--7-------|-----------------|--9------9-----x-|--9--9--9--9--------|
|-5----------------|-----4--5--7-----|--7------7-----x-|--7--7--7--7--------|
|------------------|--5--------------|-----------------|--------------------|
           Don't keep it all inside                       no no

[Solo]
  E                   C                 A                 C      D
|------------------|-----------------|-----------------|--------------------|
|------------------|-----------------|-----------------|--------------------|
|------------------|-----------------|-----------------|--------------------|
|------------------|--5--------------|--5--------------|--5------7----------|
|-7-------7---5----|--------7---5----|--------7---5----|--------------------|
|------------------|-----------------|-----------------|--------------------|

  E                   C                 A                 C      D
|------------------|-----------------|-----------------|--------------------|
|------------------|-----------------|-----------------|--------------------|
|------------------|-----------------|-----------------|--------------------|
|------------------|--5--------------|--5--------------|--5------7----------|
|-7-------7---5----|--------7---5----|--------7---5----|--------------------|
|------------------|-----------------|-----------------|--------------------|

  D                   A                 E
|------------------|-----------------|-----------------|--------------------|
|------------------|-----------------|-----------------|--------------------|
|------------------|-----------------|--9------9-----x-|--9--9--9--9--------|
|----4--5--7-------|-----------------|--9------9-----x-|--9--9--9--9--------|
|-5----------------|-----4--5--7-----|--7------7-----x-|--7--7--7--7--------|
|------------------|--5--------------|-----------------|--------------------|

  D                   A                 E
|------------------|-----------------|-----------------|--------------------|
|------------------|-----------------|-----------------|--------------------|
|------------------|-----------------|--9------9-----x-|--9--9--9--9--------|
|----4--5--7-------|-----------------|--9------9-----x-|--9--9--9--9--------|
|-5----------------|-----4--5--7-----|--7------7-----x-|--7--7--7--7--------|
|------------------|--5--------------|-----------------|--------------------|


|------------------|-----------------|-----------------|--------------------|
|------------------|-----------------|-----------------|--------------------|
|------------------|-----------------|-----------------|--------------------|
|--(bass)----------|-----------------|-----------------|--------------------|
|---------2--------|--------5--------|--------7--------|--------10----------|
|--0--0------0-----|--3--3-----3-----|--5--5-----5-----|--8--8------8-------|


[Verse]
  D                   A                 E
|------------------|-----------------|-----------------|--------------------|
|------------------|-----------------|-----------------|--------------------|
|------------------|-----------------|--9------9-----x-|--9--9--9--9--------|
|----4--5--7-------|-----------------|--9------9-----x-|--9--9--9--9--------|
|-5----------------|-----4--5--7-----|--7------7-----x-|--7--7--7--7--------|
|------------------|--5--------------|-----------------|--------------------|
                                              Do--   n't k--e--e--p  it

  D                   A                 E
|------------------|-----------------|-----------------|--------------------|
|------------------|-----------------|-----------------|--------------------|
|------------------|-----------------|--9------9-----x-|--9--9--9--9--------|
|----4--5--7-------|-----------------|--9------9-----x-|--9--9--9--9--------|
|-5----------------|-----4--5--7-----|--7------7-----x-|--7--7--7--7--------|
|------------------|--5--------------|-----------------|--------------------|
                                                          inside

  D                   A                 E
|------------------|-----------------|-----------------|--------------------|
|------------------|-----------------|-----------------|--------------------|
|------------------|-----------------|--9------9-----x-|--9--9--9--9--------|
|----4--5--7-------|-----------------|--9------9-----x-|--9--9--9--9--------|
|-5----------------|-----4--5--7-----|--7------7-----x-|--7--7--7--7--------|
|------------------|--5--------------|-----------------|--------------------|
                                               if you believe it

  D                   A                 E
|------------------|-----------------|-----------------|--------------------|
|------------------|-----------------|-----------------|--------------------|
|------------------|-----------------|--9------9-----x-|--9--9--9--9--------|
|----4--5--7-------|-----------------|--9------9-----x-|--9--9--9--9--------|
|-5----------------|-----4--5--7-----|--7------7-----x-|--7--7--7--7--------|
|------------------|--5--------------|-----------------|--------------------|
           Don't keep it all inside

  D                   A                 E
|------------------|-----------------|-----------------|--------------------|
|------------------|-----------------|-----------------|--------------------|
|------------------|-----------------|--9------9-----x-|--9--9--9--9--------|
|----4--5--7-------|-----------------|--9------9-----x-|--9--9--9--9--------|
|-5----------------|-----4--5--7-----|--7------7-----x-|--7--7--7--7--------|
|------------------|--5--------------|-----------------|--------------------|
           Don't keep it all inside

  D                   A                 E
|------------------|-----------------|-----------------|--------------------|
|------------------|-----------------|-----------------|--------------------|
|------------------|-----------------|--9------9-----x-|--9--9--9--9--------|
|----4--5--7-------|-----------------|--9------9-----x-|--9--9--9--9--------|
|-5----------------|-----4--5--7-----|--7------7-----x-|--7--7--7--7--------|
|------------------|--5--------------|-----------------|--------------------|
                                              Do--   n't k--e--e--p  it

  D                   A                 E
|------------------|-----------------|-----------------|--------------------|
|------------------|-----------------|-----------------|--------------------|
|------------------|-----------------|--9------9-----x-|--9--9--9--9--------|
|----4--5--7-------|-----------------|--9------9-----x-|--9--9--9--9--------|
|-5----------------|-----4--5--7-----|--7------7-----x-|--7--7--7--7--------|
|------------------|--5--------------|-----------------|--------------------|
                                                          inside

  D                   A                 E
|------------------|-----------------|-----------------|--------------------|
|------------------|-----------------|-----------------|--------------------|
|------------------|-----------------|--9------9-----x-|--9--9--9--9--------|
|----4--5--7-------|-----------------|--9------9-----x-|--9--9--9--9--------|
|-5----------------|-----4--5--7-----|--7------7-----x-|--7--7--7--7--------|
|------------------|--5--------------|-----------------|--------------------|
                                               if you believe it

  D                   A                 E
|------------------|-----------------|-----------------|-------------------||
|------------------|-----------------|-----------------|-------------------||
|------------------|-----------------|--9------9-----x-|--9----------------||
|----4--5--7-------|-----------------|--9------9-----x-|--9----------------||
|-5----------------|-----4--5--7-----|--7------7-----x-|--7----------------||
|------------------|--5--------------|-----------------|-------------------||
           Don't keep it all inside                       No

-=-=-=-=-=-=-=-=-=-=-=-=-=-=-=-=-=-=-=-=-=-=-=-=-=-=-=-=-=-=-=-=-=-=-=-=-=-=-
Well, I saw the clip on MTV and I think they are very good. I bought the CD-
single 2 hours ago, plugged in my guitar and played along with it. Some
problems with tabbing this song. I can't hear the words exactly and there
was no song text on the inside of the cover so please correct the song text.
(I'm a guitarist not a singer) Second problem is that my left wrist is a
little bit bruised :( Sometimes the guitar is quiet and the bass is playing
so I also tabbed the bass a little.

Last note :

--f12--- := put your finger on the 12th fret but DON'T press. Remove your
            finger quickly when you hit the string.

Please mail any errors, mistakes to C.W.G.M.ENDERS@KUB.NL
-=-=-=-=-=-=-=-=-=-=-=-=-=-=-=-=-=-=-=-=-=-=-=-=-=-=-=-=-=-=-=-=-=-=-=-=-=-=-



Greetings,
   _____     _____
  |     |   |  _  |
  |  ---|   |  _|-|
  |_____|*  |_____|*

Build a system that even a fool can use and only a fool will use it.     
Добавлено: 21.11.2013
Другие материалы по этой песне:

Страница создана 21.02.2012
http://primanota.ru/stiltskin/inside-chords.htm
Привет, Гость.
Предлагаем пройти революционный курс по гитаре.
Подарок от PrimaNota.Ru, забирай!