PrimaNota.ru - самый крупный в мире бесплатный архив песенных текстов, аккордов, табулатур и нот


Stillborn - The Creature - таба, видео

Регистрация Запомнить меня
Войти через:  Facebook Google Twitter Vk Yandex Mail.ru

Stillborn - The Creature - таба, видео

Печатать
Просмотров: 64
Уроки эстрадного вокала в Санкт-Петербурге
    STILLBORN
***THE CREATURE***

Words and music by: Emil Karlsson (emil_karls@hotmail.com)

Tab written by Erik Lindebratt (erik.lindebratt@mail.kalmar.se)

The whole song goes like this:
MAIN RIFF x4
VERSE  x4
MAIN RIFF x2
VERSE  x4
CHORUS  x3
MAIN RIFF 2 x2
VERSE  x4
CHORUS  x5
GUITAR SOLO x4
CHORUS  x3

MAIN RIFF (Guitar):
e-----------------|-------------------|
B-----------------|-------------------|
G-----------------|-------------------|
D-----5-5-1-1-----|-------------3-1---|
A-3-3---------3-3-|-1-1-1-3-3-3-----3-|
E-----------------|-------------------|

MAIN RIFF 2 (Guitar):
e-----------------|-------------------|
B-----------------|-------------------|
G-----------------|-------------------|
D-----2-2---------|-------------0-----|
A-0-0-----3-3-0-0-|-------0-0-0---3---|
E-----------------|-3-3-3-------------|

GUITAR SOLO:
e-----------------|-----------|-------3-------|------------------|
B-------0h1p0-----|---1-0-1-3-|-0---0---3p0---|-----1-----0-3-0--|
G-2---2-------2---|-----------|---0---------0-|---2---2-0--------|
D---2-----------2-|-3---------|---------------|-3----------------|
A-----------------|-----------|---------------|------------------|
E-----------------|-----------|---------------|------------------|

The chords (in in the right order):
MAIN RIFF:   C5   Bb5 C5
VERSE:       C5   Bb5   F5   G5
MAIN RIFF:   C5   Bb5 C5
VERSE:       C5   Bb5   F5   G5
CHORUS:      A5   F5   G5   F5 G5   A5   C5   G5   F5 G5
MAIN RIFF 2: A5   G5 A5
VERSE 2:     A5   G5   D5   E5
CHORUS:      A5   F5   G5   F5 G5   A5   C5   G5   F5 G5
GUITAR SOLO: A5   F5   G5   F5 G5
CHORUS:      A5   F5   G5   F5 G5   A5   C5   G5   F5 G5


That's quite all of it!


     
Добавлено: 20.07.2013
Другие материалы по этой песне:
  • Аккорды и текст

Страница создана 20.07.2013
http://primanota.ru/stillborn/the-creature-chords.htm
Привет, Гость.
Предлагаем пройти революционный курс по гитаре.
Подарок от PrimaNota.Ru, забирай!