PrimaNota.ru - самый крупный в мире бесплатный архив песенных текстов, аккордов, табулатур и нот


Stillborn - Slayers Burden - таба, видео

Регистрация Запомнить меня
Войти через:  Facebook Google Twitter Vk Yandex Mail.ru

Stillborn - Slayers Burden - таба, видео

Печатать
Просмотров: 55
    STILLBORN
***Slayers burden***
by Emil Karlsson (emil_karls@hotmail.com)
 
Tab written by Emil Karlsson (emil_karls@hotmail.com)
 
The whole song goes like this:
RIFF 1            x4
RIFF 2                                  x2
VERSE                                x4
BRIDGE          x1
CHORUS          x2
RIFF 1                                  x2
VERSE                                x4
BRIDGE          x1
CHORUS          x2
RIFF 1                                  x2
BREAK           x2
SOLO            x2
CHORUS          x8
 
 
RIFF 1 (Guitar):
e--------------------------------------|
B-----5-5-5-5--4--0------5-5-5-5--4--0-|
G--------------------------------------|
D--------------------------------------|
A--4-----------------2-2---------------|
E--------------------------------------|
 
e--------------------------------------|
B-----5-5-5-5--4--0--5-4-0-5-4-0-5-4-0-|
G--------------------------------------|
D--------------------------------------|
A--0-0---------------------------------|
E--------------------------------------|
 
e-----4-4-4-4--2--0------4-4-4-4--2--0-|
B--------------------------------------|
G--------------------------------------|
D--------------------------------------|
A--4-----------------2-2---------------|
E--------------------------------------|
 
e-----4-4-4-4---2--0--5-4-0-7-5-0-9-7-0|
B--------------------------------------|
G--------------------------------------|
D--------------------------------------|
A--0-0---------------------------------|
 
e--------------------------------------|
B-----5-5-5-5--4--0------5-5-5-5--4--0-|
G--------------------------------------|
D--------------------------------------|
A--4-----------------2-2---------------|
E--------------------------------------|
 
e--------------------------------------|
B-----5-5-5-5--4--0--5-4-0-5-4-0-5-4-0-|
G--------------------------------------|
D--------------------------------------|
A--0-0---------------------------------|
E--------------------------------------|
 
RIFF 2 (Guitar):
e--------------------------------------------------------------------|
B--------------------------------------------------------------------|
G------------------------------------------------------------------2-|
D-------2-2-1-1-2--------2-2-1-1-2--------4-4-2-4-4--------4-4-2-4---|
A--4--4-4-4-4-4-4---0--0-0-0-0-0-0---2--2-2-2-2-2-2------------------|
E-----------------------------------------------------2--2-2-2-2-2-2-|
 
BREAK (Guitar):
e--------------------------------------------------------------------|
B--------------------------------------------------------------------|
G---------------------------------------------------9-11[Bend]-------|
D----2-2-2--4--4--6-----6-6-6--9--9--11----11-11-11------------------|
A--4-----------------0-----------------------------------------------|
E----------------------------------------7---------------------------|
 
e--------------------------------------------------------------------|
B---------------------------------------12---------------------------|
G--9-11[Bend]-9---------------9-11--11-----11--9---------------------|
D---------------11---11-11-11---------------------11-----------------|
A--------------------------------------------------------------------|
E------------------2-------------------------------------------------|
 
 
 
SOLO (Guitar):
e--------------------12--16-16-16-16-14-12------11-12-11--11-12------|
B---14--14-14--12-14-----------------------14-------------------12---|
G--------------------------------------------------------------------|
D--------------------------------------------------------------------|
A--------------------------------------------------------------------|
E--------------------------------------------------------------------|
 
e-11-12-11--11-12-------------12-------12-------12-------------------|
B-----------------12-----9-10-----9-10-----9-10----------------------|
G--------------------------------------------------------------------|
D--------------------------------------------------------------------|
A--------------------------------------------------------------------|
E--------------------------------------------------------------------|
 
The chords (in in the right order):
 
RIFF 1            C#m H A
RIFF 2                                  C#m H A
VERSE                                C#m A H F#m
BRIDGE          A   H
CHORUS          C#m H A
RIFF 1                                  C#m H A
VERSE                                C#m A H F#m
BRIDGE          A   H
CHORUS          C#m H A
RIFF 1                                  C#m H A
BREAK           C#m A H F#m
SOLO            C#m A H F#m
CHORUS          C#m H A

     
Добавлено: 04.12.2013
Вам также может быть интересно:
Другие материалы по этой песне:
  • Аккорды и текст

Страница создана 04.12.2013
http://primanota.ru/stillborn/slayers-burden-chords.htm
Привет, Гость.
Предлагаем пройти революционный курс по гитаре.
Подарок от PrimaNota.Ru, забирай!