PrimaNota.ru - самый крупный в мире бесплатный архив песенных текстов, аккордов, табулатур и нот


Stillborn - My Respect - таба, видео

Регистрация Запомнить меня
Войти через:  Facebook Google Twitter Vk Yandex Mail.ru

Stillborn - My Respect - таба, видео

Печатать
Просмотров: 59
   STILLBORN
***MY RESPECT***

Words and music by: Emil Karlsson (emil_karls@hotmail.com)

Tab written by Erik Lindebratt (lindebratt_erik@hotmail.com)

The whole song goes like this:
MAIN RIFF               x2
MAIN RIFF + GUITAR SOLO x2
VERSE (Main riff        x4)
MAIN RIFF + GUITAR SOL0 x2
VERSE (Main riff        x3)
BRIDGE
CHORUS   x3
VERSE (Main riff        x3)
BRIDGE
CHORUS   x5

MAIN RIFF (Bass):
e------------------|-----------------|
B------------------|-----------------|
G------------------|-----------------|
D--0--0--0---------|---------------3-|  This riff goes through the whole verse
A------------0-0-0-|-1--1--1---------|
E------------------|-----------1-1---|

GUITAR RIFF:
e------------------|-----------------|
B------------------|-----------------|
G------------------|-----------------|
D------7---8-7-5-3-|-------0-----3-2-|
A--5-----5---------|-1-1-3---3-3-----|
E------------------|-----------------|

The chords:
MAIN RIFF: D5   A5   Bb5   C5
VERSE:     D5   A5   Bb5   C5
MAIN RIFF: D5   A5   Bb5   C5
VERSE:     D5   A5   Bb5   C5
BRIDGE:    G5   A5
CHORUS:    B5   G5   D5    A5

That's all, hope you enjoy playing it!


     
Добавлено: 15.09.2013
Другие материалы по этой песне:
  • Аккорды и текст

Страница создана 15.09.2013
http://primanota.ru/stillborn/my-respect-chords.htm
Привет, Гость.
Предлагаем пройти революционный курс по гитаре.
Подарок от PrimaNota.Ru, забирай!