PrimaNota.ru - самый крупный в мире бесплатный архив песенных текстов, аккордов, табулатур и нот


Still Remains - Six And One - текст песни, таба, видео

Регистрация Запомнить меня
Войти через:  Facebook Google Twitter Vk Yandex Mail.ru

Still Remains - Six And One - текст песни, таба, видео

Печатать
Просмотров: 121
Уроки эстрадного вокала в Санкт-Петербурге
-------------------------------------------------------------------------------
                             Six And One Intro - Still Remains
-------------------------------------------------------------------------------
Tabbed by: Joseph Brandenburg
E-mail: Josephbburg@gmail.com

I like this song, so I decided to tab it. Haven't figured out the whole song yet, this is just the intro
and the first riff. I'll do the rest later. I'm 95% sure about it, but comment any
corrections/additions/suggestions if you have any. I know it's a pretty crappy tab so far but give me a break!
This is the first one I've made (on PC
at least).

Tuning: Drop C#

I think it opens with a dive bomb that I can't do 'cause i don't have a whammy bar! But that's not importrant.

Intro
D#|---------------------------------------------------------------------------------|
A#|---------------------------------------------------------------------------------|
F#|---------------------------------------------------------------------------------|
C#|-0-------------------------------------------------------------------------------|
G#|-0----0---10h12-10-8-12--0---8/10-8-7-10--0---10h12-10-8-12--10h12-10-8-7-10-8-7-| x4 or so
C#|-0-------------------------------------------------------------------------------|
    dive bomb                                                      *
         *the first time doesn't have the hammer on. After about two or three times,
          the other guitar joins in one string higher.

Verse 1
D#|---------------------------------------------------------------------------------|
A#|---------------------------------------------------------------------------------|
F#|---------------------------------------------------------------------------------|
C#|---------------------------------------------------------------------------------|
G#|--8--10--12--10--12-10-8-10-12-10-8----8--10--12--10/11--8-10-11-8-11-10-8-------|
C#|---------------------------------------------------------------------------------|

D#|---------------------------------------------------------------------------------|
A#|---------------------------------------------------------------------------------|
F#|---------------------------------------------------------------------------------|
C#|------------------------------------------------------------------14-------------|
G#|--8--10--12--10--12-10-8-10-12-10-8----8--10--12--12/13--15-13-16----15-13-12----|
C#|---------------------------------------------------------------------------------|

I'll figure the rest out later!



************************************

| /   slide up
| \   slide down
| h   hammer-on
| p   pull-off
| ~   vibrato
| +   harmonic
| x   Mute note
| b   Bend
| pb  Pre-bend
| br  Bend release
| pbr Pre-bend release
| brb Bend release bend

************************************
Добавлено: 21.11.2015
Вам также может быть интересно:
Другие материалы по этой песне:
  • Аккорды и текст

Страница создана 20.07.2012
http://primanota.ru/still-remains/six-and-one-chords.htm
Привет, Гость.
Предлагаем пройти революционный курс по гитаре.
Подарок от PrimaNota.Ru, забирай!