PrimaNota.ru - самый крупный в мире бесплатный архив песенных текстов, аккордов, табулатур и нот


Still Remains - Kelsey - текст песни, таба, видео

Регистрация Запомнить меня
Войти через:  Facebook Google Twitter Vk Yandex Mail.ru

Still Remains - Kelsey - текст песни, таба, видео

Печатать
Просмотров: 185
-------------------------------------------------------------------------------
                             Kelsey - Still remains
-------------------------------------------------------------------------------
Tabbed by: seanius (sean crow)
Email: die_for_nothing_323@hotmail.com

Tuning: Drop C  (CGCFAd)       Insanely amazin song/band i figured this tab 
                               out in aboot an hour (accidently)! I know 
                               theres a guitar pro tab for it but i cant read
                               them, but i suggest if you CAN read GP 
                               check it out!
  
d|-----------------------------------------------------------|
A|-----------------------------------------------------------|
F|-----------------------------------------------------------|
C|-0----------------------------0----------------------------|
G|-0---5---3---6---5---8---6h5--0---5---3---6---5---8---6h5--|
C|-0-0---0---0---0---0---0------0-0---0---0---0---0---0------|


d|---------------------------------------------------------------|
A|---------------------------------------------------------------|
F|---------------------------------------------------------------|
C|-0----------------------------0---------------8-6-5---6-5------|
G|-0---8---6---5---3h5---1---0--0---8---6---5---------8-----6-5--|
C|-0-0---0---0---0-----0---0----0-0---0---0---0------------------|
Добавлено: 16.03.2012
Другие материалы по этой песне:

Страница создана 11.03.2012
http://primanota.ru/still-remains/kelsey-chords.htm
Привет, Гость.
Предлагаем пройти революционный курс по гитаре.
Подарок от PrimaNota.Ru, забирай!