PrimaNota.ru - самый крупный в мире бесплатный архив песенных текстов, аккордов, табулатур и нот


Stigma - Unknown - таба, видео

Регистрация Запомнить меня
Войти через:  Facebook Google Twitter Vk Yandex Mail.ru

Stigma - Unknown - таба, видео

Печатать
Просмотров: 163
Уроки эстрадного вокала в Санкт-Петербурге
                         Unnamed song by stigma

| /  slide up
| \  slide down
| h  hammer-on
| p  pull-off
| ~  vibrato
| +  harmonic
| x  Mute note


e|-------[repeat 4x]-------this plays in back round until chorus starts----|
B|-------------------------------------------------------------------------|
G|-------------------------------------------------------------------------|
D|-------------------------------------------------------------------------|
A|--x0x0x0x0-x0x0x0----x0x0x0----------------------------------------------|
E|-------------------------------------------------------------------------|
                    [Repeat 2x]  (not chorus)
e|---------------------------------------------------------------------------|
B|---------------------------------------------------------------------------|
G|---------------------------------------------------------------------------|
D|---------------------------------------------------------------------------|
A|--------------------------------------3-2-1--------------------------------|
E|--1-2/3--1-2/3--1-2/3-3-3—3-2-1---1-2-3-------1-2/3-3-3—3-2-1--------------|
				CHORUS!! Repeat 2x
e|-------------------------------------------------------------------------|
B|-------------------------------------------------------------------------|
G|--2-2-2-2-x-x-3-3-3-3-------------x-x-5-5-5-5----------------------------|
D|--2-2-2-2-x-x-3-3-3-3-x-x-3-3-3-3-x-x-5-5-5-5----------------------------|
A|----------x-x-5-5-5-5-x-x-3-3-3-3-x-x-7-7-7-7----------------------------|
E|----------------------x-x-5-5-5-5----------------------------------------|

                    [Repeat 2x]  (not chorus)
e|-------------------------------------------------------------------------|
B|-------------------------------------------------------------------------|
G|-------------------------------------------------------------------------|
D|-------------------------------------------------------------------------|
A|----------------------------------------3-2-1----------------------------|
E|--1-2/3--1-2/3--1-2/3-3-3—3-2-1---1-2-3-------1-2/3-3-3—3-2-1------------|

					CHORUS!! Repeat 2x
e|-------------------------------------------------------------------------|
B|-------------------------------------------------------------------------|
G|--2-2-2-2-x-x-3-3-3-3-------------x-x-5-5-5-5----------------------------|
D|--2-2-2-2-x-x-3-3-3-3-x-x-3-3-3-3-x-x-5-5-5-5----------------------------|
A|----------x-x-5-5-5-5-x-x-3-3-3-3-x-x-7-7-7-7----------------------------|
E|----------------------x-x-5-5-5-5----------------------------------------|
					Solo!
e|---------------------------------------------------------------------------|
B|---------------------------------------------------------------------------|
G|---------------------------------------------------------------------------|
D|--111111111h321-111111111h321—1111111113113113---3/10~---------------------|
A|---------------------------------------------------------------------------|
E|---------------------------------------------------------------------------|

e|---------------------------------------------------------------------------|
B|---------------------------------------------------------------------------|
G|---------------------------------------------------------------------------|
D|--10-10-10-13p12p11p-10-10-10-13p12p11p-10-10-10-13p12p11p-10/15~----------|
A|---------------------------------------------------------------------------|
E|---------------------------------------------------------------------------|
	A bunch of theese	TAPPING!!
e|--12p8p5-12p8p5-12p8p5-12p8p5-12p8p5-------------------------------------|
B|-------------------------------------------------------------------------|
G|-------------------------------------------------------------------------|
D|-------------------------------------------------------------------------|
A|-------------------------------------------------------------------------|
E|-------------------------------------------------------------------------|

A bunch of theese	TAPPING!!
e|--13p8p5-13p8p5-13p8p5-13p8p5-13p8p5-------------------------------------|
B|-------------------------------------------------------------------------|
G|-------------------------------------------------------------------------|
D|-------------------------------------------------------------------------|
A|-------------------------------------------------------------------------|
E|-------------------------------------------------------------------------|


A bunch of theese	TAPPING!!
e|--15p8p5-15p8p5-15p8p5-15p8p5-15p8p5------12~------------------------------|
B|------------------------------------------12~------------------------------|
G|---------------------------------------------------------------------------|
D|---------------------------------------------------------------------------|
A|---------------------------------------------------------------------------|
E|---------------------------------------------------------------------------|

                    [Repeat 2x]  (not chorus)
e|---------------------------------------------------------------------------|
B|---------------------------------------------------------------------------|
G|---------------------------------------------------------------------------|
D|---------------------------------------------------------------------------|
A|----------------------------------------3-2-1----3-2-1--2~-----------------|
E|--1-2/3--1-2/3--1-2/3-3-3—3-2-1---1-2-3-----------------2~-----------------|
Добавлено: 24.07.2012
Другие материалы по этой песне:
  • Аккорды и текст

Страница создана 24.07.2012
http://primanota.ru/stigma/unknown-chords.htm
Привет, Гость.
Предлагаем пройти революционный курс по гитаре.
Подарок от PrimaNota.Ru, забирай!