PrimaNota.ru - самый крупный в мире бесплатный архив песенных текстов, аккордов, табулатур и нот


Stiff Little Fingers - Doesn't Make It All Right - текст песни, таба, видео

Регистрация Запомнить меня
Войти через:  Facebook Google Twitter Vk Yandex Mail.ru

Stiff Little Fingers - Doesn't Make It All Right - текст песни, таба, видео

Печатать
Просмотров: 164
Уроки эстрадного вокала в Санкт-Петербурге
Tab by: Marcio Fernandes F da Silva (marcioancosp@globo.com)

Stiff Little Fingers-
DOESN'T MAKE IT ALL RIGHT
( B Goldberg / J. Dammers )

INTRO
D, C, B, A
G, D, C     D, D#, E   E, C, D

(Verse:)
G, D, C                       D, D#, E
Just because ...
E, C, D
It doesn't mean ...
G, D, C                       D, D#, E
Just because...
E, C, D
It doesn't mean...

(Chorus:)
G, D, C, D
It doesn't make ...
G, D, C
It doesn't make ...
G D C D
It's the worse excuse ...
G, D, C
And it doesn't ...

D, C, B, A


Solo:

|--------------------------------------------------------------|
|------------------------------------7-8-7-5-7-8-10--10--8-7---|
|5-7---7-7-9-7-9-7-9-7-5-7---7-8-9-9-------------------------9-|
|--------------------------------------------------------------|
|--------------------------------------------------------------|
|--------------------------------------------------------------|


|------------------------------------------------------------|
|------7-8-8-8-7-8-7-/-5-5---------------------7-8-7-5-7-8-10|
|7-5-7---------------------7-7-9-7-5-7-7-8-9-9---------------|
|------------------------------------------------------------|
|------------------------------------------------------------|
|------------------------------------------------------------|

the last part:
G, D, C, D, E, D
     
Добавлено: 11.06.2013
Другие материалы по этой песне:
  • Аккорды и текст

Страница создана 22.07.2012
http://primanota.ru/stiff-little-fingers/doesnt-make-it-all-right-chords.htm
Привет, Гость.
Предлагаем пройти революционный курс по гитаре.
Подарок от PrimaNota.Ru, забирай!