PrimaNota.ru - самый крупный в мире бесплатный архив песенных текстов, аккордов, табулатур и нот


Sticky Fingers - Velvet Skies - таба, видео

Регистрация Запомнить меня
Войти через:  Facebook Google Twitter Vk Yandex Mail.ru

Sticky Fingers - Velvet Skies - таба, видео

Печатать
Просмотров: 61
-------------------------------------------------------------------------------
                             Velvet Skies - Sticky Finger ft Lyall Money
-------------------------------------------------------------------------------
Tabbed by:Chris Eaton
E-mail:ceaton859@gmail.com

Tuning:Standard EADGBE

INTRO/VERSE REPEAT TWO TIMES
e|--7--7---7--7----9---9---9---9----7--7---7--7----9---9---9---9--9---9---9---9---|
B|--9--9---9--9----10--10--10--10---9--9---9--9----10--10--10--10-10--10--10--10--|
G|--9--9---9--9----11--11--10--11---9--9---9--9----11--11--10--11-11--11--10--11--|
D|--------------------------------------------------------------------------------|
A|--------------------------------------------------------------------------------|
E|--------------------------------------------------------------------------------|

=====================================================================================
REPEAT RIFF TWICE
e|---------------------------------------------------------------------------|
B|-5-5-5--2--5--5-5-5--2--5--2-----5-5-5--2--5--5-5-5--2--5--2---------------|
G|------------------------------4-------------------------------4------------|
D|---------------------------------------------------------------------------|
A|---------------------------------------------------------------------------|
E|---------------------------------------------------------------------------|

e|---------------------------------------------------------------------------|
B|-9-9-9--7--9--9-9-9--7--9--7--5--9-9-9--7--9----7--9s12--12-12b14b12-------|
G|---------------------------------------------------------------------------|
D|---------------------------------------------------------------------------|
A|---------------------------------------------------------------------------|
E|---------------------------------------------------------------------------|
=============================================================================================
VERSE REPEAT TWO TIMES
e|--7--7---7--7----9---9---9---9----7--7---7--7----9---9---9---9--9---9---9---9---|
B|--9--9---9--9----10--10--10--10---9--9---9--9----10--10--10--10-10--10--10--10--|
G|--9--9---9--9----11--11--10--11---9--9---9--9----11--11--10--11-11--11--10--11--|
D|--------------------------------------------------------------------------------|
A|--------------------------------------------------------------------------------|
E|--------------------------------------------------------------------------------|

e||----4----|-----------------|----5---|----------------|----4----|--------------------|
B||--5---5--|-REPEAT 15 TIMES-|--5---5-|-REPEAT 4 TIMES-|--5---5--|-REPEAT 4 TIMES-----|
G||4-------4|-----------------|4------4|----------------|4-------4|--------------------|
D|-------------------------------------------------------------------------------------|
A|-------------------------------------------------------------------------------------|
E|-------------------------------------------------------------------------------------|

e||----5---|----------------|----4----|--------------------------------------|
B||--5---5-|-REPEAT 4 TIMES-|--5---5--|-REPEAT 4 TIMES---|-------------------|
G||4------4|----------------|4-------4|--------------------------------------|
D|---------------------------------------------------------------------------|
A|---------------------------------------------------------------------------|
E|---------------------------------------------------------------------------|

REPEAT UNTIL END
e|--7--7---7--7----9---9---9---9----7--7---7--7----9---9---9---9--9---9---9---9---|
B|--9--9---9--9----10--10--10--10---9--9---9--9----10--10--10--10-10--10--10--10--|
G|--9--9---9--9----11--11--10--11---9--9---9--9----11--11--10--11-11--11--10--11--|
D|--------------------------------------------------------------------------------|
A|--------------------------------------------------------------------------------|
E|--------------------------------------------------------------------------------|
FINISH OFF WITH D FLAT MINOR CHORD
e|-4----------------------------------------------------------------------------|
B|-5----------------------------------------------------------------------------|
G|-6----------------------------------------------------------------------------|
D|-6----------------------------------------------------------------------------|
A|-4----------------------------------------------------------------------------|
E|------------------------------------------------------------------------------|
Добавлено: 17.11.2015
Другие материалы по этой песне:
  • Аккорды и текст

Страница создана 17.11.2015
http://primanota.ru/sticky-fingers/velvet-skies-chords.htm
Привет, Гость.
Предлагаем пройти революционный курс по гитаре.
Подарок от PrimaNota.Ru, забирай!