PrimaNota.ru - самый крупный в мире бесплатный архив песенных текстов, аккордов, табулатур и нот


Sticky Fingers - Inspirationaliser - таба, видео

Регистрация Запомнить меня
Войти через:  Facebook Google Twitter Vk Yandex Mail.ru

Sticky Fingers - Inspirationaliser - таба, видео

Печатать
Просмотров: 118
INSPIRATIONALISER TABS

Intro
             Dmin
E------5-------5-------------------------------------------------------|
B------6-------6----------REPEAT---------------------------------------|
G------7-------7-------------------------------------------------------|
D------7-------7-------------------------------------------------------|
A------5-------5-------------------------------------------------------|
E----------------------------------------------------------------------|


Verse and Chorus
    DminAminEminFadd9
E--------5----5-------5----5------7---7------10---10--------------------|
B--------6----6-------5----5------8---8------10---10--------------------|
G--------7----7-------5----5------9---9------10---10--------------------|
D--------7----7-------7----7------9---9------10---10--------------------|
A--------5----5-------7----7------7---7-------8----8--------------------|
E---------------------5----5--------------------------------------------|


"Run down the alley, sparkling footsteps....." bit:
 do this 2 times through, then normal
verse and chorus.
    AminG  EminDmin
E-----5----5-------3----3------7---7------7---7---------------------|
B-----5----5-------3----3------8---8------6---6---------------------|
G-----5----5-------4----4------9---9------7---7---------------------|
D-----7----7-------5----5------9---9------7----7--------------------|
A-----7----7-------5----5------7---7------5----5--------------------|
E-----5----5-------3----3-------------------------------------------|

Guitar Riff
E-----------------5-----------------|----------------5---------------------------------|
B----------5h6------------6-------|------------5--5----------5-------------------------|
G----------5---------------5-------|------------5--------------5-----------------------|
D------7----------------------7----|-5h6h7--------------7-------7----------------------|
A---5------------------5-----------|---------------------------------------------------|
E-----------------------------------|--------------------------------------------------|

E-----------------7-----------------|-----------------------------------------7-------|
B----------7h8------------8-------|----------------10---------------7h8---------------|
G----------7---------------7-------|---8h9--------------9-----------7-----------------|
D------9----------------------9----|-----------10-----------------9-------------------|
A---7------------------7-----------|---8------------------------7---------------------|
E-----------------------------------|-------------------------------------------------|

E-----------------5-----------------|----------------------12-------------------------|
B----------5h6------------6-------|-------------5-------13----------------------------|
G----------5---------------5-------|--5----------5-------12---------------------------|
D----------7------------------7----|----5h7-------------14----------------------------|
A---5------------------5-----------|----------------------12--------------------------|
E-----------------------------------|-------------------------------------------------|

E-----------------7-----------------|--------------------------------------------------|
B----------7h8------------8-------|---10---10----10-------8----------------------------|
G----------7---------------7-------|----9-----9-----9--------7-------------------------|
D------9----------------------9----|---10---10----10-------9---------------------------|
A---7------------------7-----------|----8-----8-----8--------7-------------------------|
E-----------------------------------|--------------------------------------------------|
Добавлено: 27.06.2015
Другие материалы по этой песне:
  • Аккорды и текст

Страница создана 27.06.2015
http://primanota.ru/sticky-fingers/inspirationaliser-chords.htm
Привет, Гость.
Предлагаем пройти революционный курс по гитаре.
Подарок от PrimaNota.Ru, забирай!