PrimaNota.ru - самый крупный в мире бесплатный архив песенных текстов, аккордов, табулатур и нот


Sticky Fingers - I Aint Running - таба, видео

Регистрация Запомнить меня
Войти через:  Facebook Google Twitter Vk Yandex Mail.ru

Sticky Fingers - I Aint Running - таба, видео

Печатать
Просмотров: 78
Intro and Verse
     Amaj7add9         Bmin7/A
E------7---------(6)-------5--------(6)--------------------------------------------------|
B------5---------(4)-------3--------(4)-----Repeat---------------------------------------|
G------6---------(5)-------4--------(5)--------------------------------------------------|
D------6---------(5)-------4--------(5)--------------------------------------------------|
A------0---------(0)-------0--------(0)--------------------------------------------------|
E-------x---------x---------x---------x--------------------------------------------------|


Chorus(I'm letting go)
    C#min7                 Bmin7                C#min7               Emin7add#6
E-----4------(3)---------2-----------(3)-------4------------------9--------------------|
B-----5------(4)---------3-----------(4)-------5------------------8--------------------|
G-----4------(3)---------2-----------(3)-------4------------------7--------------------|
D-----6------(5)---------4-----------(5)-------6------------------9--------------------|
A-----4------(3)---------2-----------(3)-------4------------------7--------------------|
E--------------------------------------------------------------------------------------|


The chords in brackets are passing chords, that is they are only played very quickly
to pass to the chords inbetween.
Добавлено: 27.06.2015
Другие материалы по этой песне:
  • Аккорды и текст

Страница создана 27.06.2015
http://primanota.ru/sticky-fingers/i-aint-running-chords.htm
Привет, Гость.
Предлагаем пройти революционный курс по гитаре.
Подарок от PrimaNota.Ru, забирай!