PrimaNota.ru - самый крупный в мире бесплатный архив песенных текстов, аккордов, табулатур и нот


Sticky Fingers - Headlock - таба, бас-таба, видео

Регистрация Запомнить меня
Войти через:  Facebook Google Twitter Vk Yandex Mail.ru

Sticky Fingers - Headlock - таба, бас-таба, видео

Печатать
Просмотров: 155
Headlock
Intro Riff
 D D/F# F#m Bm D F#m Bm A
E----------------------------------------|----------------------------------------|
B----------------------------------------|----------------------------------------|
G----------------------------------------|----------------------------------------|
D--0-0-0----4-4-4---7-7-7---9-9-9--|-0-0-0----4-4-4----9-9-9-----7-7-7------------|
A----------------------------------------|----------------------------------------|
E----------------------------------------|----------------------------------------|
Verse - You can just play these straight or do the reggae up beat thing that the
guitarist does.
 D F#m Bm
E-------5-------------------2--------------2------------------------------------|
B-------7-------------------2--------------3------------------------------------|
G-------7-------------------2--------------4------------------------------------|
D-------7-------------------4--------------4------------------------------------|
A-------5-------------------4--------------2------------------------------------|
E---------------------------2---------------------------------------------------|

Bridge/Chorus
Emin D | Emin Bm A
E--------7------------5----------|---------7--------------2------0-----------------|
B--------8------------7----------|---------8--------------3------2-----------------|
G--------9------------7-----x 3--|---------9--------------4------2-----------------|
D--------9------------7----------|---------9--------------4------2-----------------|
A--------7------------5----------|---------7--------------2------0-----------------|
E--------------------------------|-------------------------------------------------|
Easier D and Em Chord
 D Em
E--------2-----------0---------------------------------------------------------|
B--------3-----------0---------------------------------------------------------|
G--------2-----------0---------------------------------------------------------|
D--------0-----------2---------------------------------------------------------|
A--------0-----------2---------------------------------------------------------|
E--------------------0---------------------------------------------------------|
Добавлено: 27.06.2015
Другие материалы по этой песне:
  • Аккорды и текст

Страница создана 27.06.2015
http://primanota.ru/sticky-fingers/headlock-chords.htm
Привет, Гость.
Предлагаем пройти революционный курс по гитаре.
Подарок от PrimaNota.Ru, забирай!