PrimaNota.ru - самый крупный в мире бесплатный архив песенных текстов, аккордов, табулатур и нот


Sticky Fingers - Happy Endings - таба, видео

Регистрация Запомнить меня
Войти через:  Facebook Google Twitter Vk Yandex Mail.ru

Sticky Fingers - Happy Endings - таба, видео

Печатать
Просмотров: 69
Happy Endings Tabs
Intro Riff and Chorus

 Amin Emin F G
E----------------------------------------------------------------------------|
B----------------------------------------------------------------------------|
G---5----x----5s7----0-----12----------2----x----7------4--------------------|
D----------------------------------------------------------------------------|
A----------------------------------------------------------------------------|
E---5----x----5s7----0-----12----------1----x----7------3--------------------|
Verse
 F maj 7 C maj7
E-------8-------x-------8-------------3---------x--------3-------|
B------10------x------10-------------5---------x-------5---------|
G-------9-------x-------9-------------4---------x-------4--------|
D---------------x---------------------------------x--------------|
A---8------8---x----8-------------3------3-----x----3------------|
E---------------x---------------------------------x--------------|
'You can go with us' extra chord
E--1--
B--3--
G--2--
D--3--
A--1--
E--X-
Amin Emin F Fmaj7 G Cmaj7
E----0--------0------1-------0--------3--------0----0----|
B----1--------0------1-------1--------0--------0----0----|
G----2--------0------2-------2--------0--------0----0----|
D----2--------2------3-------3--------0--------2-----2---|
A----0--------2------3-------3--------2--------3-----3---|
E----x--------0------1-------x--------3--------3------3--|
---------------------------------------------------------|
Easier Version

Happy Endings Tabs
Intro Riff
E----------------------------------------------------------------------------|
B----------------------------------------------------------------------------|
G---5----x----5s7----0-----12----------2----x----7------4--------------------|
D----------------------------------------------------------------------------|
A----------------------------------------------------------------------------|
E---5----x----5s7----0-----12----------1----x----7------3--------------------|
Verse
 F maj 7 C
Happy endings come to those who wait......
Chorus
Amin Emin F G
Verse
 F maj 7 C maj
You can go with this and you can go with that....
 Bb maj7
'You can go with us'
************************************

| /   slide up
| \   slide down
| h   hammer-on
| p   pull-off
| ~   vibrato
| +   harmonic
| x   Mute note
| b   Bend
| pb  Pre-bend
| br  Bend release
| pbr Pre-bend release
| brb Bend release bend

************************************
Добавлено: 12.07.2015
Другие материалы по этой песне:
  • Аккорды и текст

Страница создана 12.07.2015
http://primanota.ru/sticky-fingers/happy-endings-chords.htm
Привет, Гость.
Предлагаем пройти революционный курс по гитаре.
Подарок от PrimaNota.Ru, забирай!