PrimaNota.ru - самый крупный в мире бесплатный архив песенных текстов, аккордов, табулатур и нот


Sticky Fingers - Freddy Crabs - таба, видео

Регистрация Запомнить меня
Войти через:  Facebook Google Twitter Vk Yandex Mail.ru

Sticky Fingers - Freddy Crabs - таба, видео

Печатать
Просмотров: 50
-------------------------------------------------------------------------------
                  Freddy Crabs (Solo) - Sticky Fingers
-------------------------------------------------------------------------------
Tabbed by:
E-mail:

Tuning:

e|---------------------------------------------------------------------------|
B|---------------------------------------------------------------------------|
G|-----------5--7-5-7b9-7b9-7b9-7b9-7b9-7b9-7b9-7b9-7b9-7b9r7----------------|
D|--6b8----------------------------------------------------------------------|
A|---------------------------------------------------------------------------|
E|-----------------------------------------------------------------3h5s8-8s10|

e|---------------------------------------------------------------------------|
B|---------------------------------------------------------------------------|
G|-------------------------------------------------------------------------12|
D|-----------------------------------------10----------10----10-12b14r12b14--|
A|---------------------10----10-12s14-12------12----12----12-----------------|
E|-10p8-10s12s10----10----12-------------------------------------------------|

e|---------------------------------------------------------------------------|
B|----------------------------------------------13-13-13-13-13-13-13-13-13---|
G|----------------14-14-14-14-14-14-14-14-14s17-17-17-17-16-16-16-14-14-14---|
D|-12p10-12p10s14-14--14-14-14-14-14-14-14---------------------------------14|
A|---------------------------------------------------------------------------|
E|---------------------------------------------------------------------------|

e|---------------------------------------------------------------------------|
B|-------17-17-17-15-15-15-10-10-10------------------------------------------|
G|-------17-17-17-16-16-16-14-14-14------------------------------------------|
D|----------------------------------14---------------------------------------|
A|---------------------------------------------------------------------------|
E|---------------------------------------------------------------------------|

(Repeat next line until end)
e|---------------------------------------------------------------------------|
B|-10h13s17--15-13-10-8-10-10-10-8-10-10-10-8-10-10-10-----------------------|
G|---------------------------------------------------------------------------|
D|---------------------------------------------------------------------------|
A|---------------------------------------------------------------------------|
E|---------------------------------------------------------------------------|


************************************

| /   slide up
| \   slide down
| h   hammer-on
| p   pull-off
| ~   vibrato
| +   harmonic
| x   Mute note
| b   Bend
| pb  Pre-bend
| br  Bend release
| pbr Pre-bend release
| brb Bend release bend

************************************
Добавлено: 04.04.2016
Другие материалы по этой песне:
  • Аккорды и текст

Страница создана 04.04.2016
http://primanota.ru/sticky-fingers/freddy-crabs-chords.htm
Привет, Гость.
Предлагаем пройти революционный курс по гитаре.
Подарок от PrimaNota.Ru, забирай!