PrimaNota.ru - самый крупный в мире бесплатный архив песенных текстов, аккордов, табулатур и нот


Stickup Kid - You Are Captain Hook - таба, видео

Регистрация Запомнить меня
Войти через:  Facebook Google Twitter Vk Yandex Mail.ru

Stickup Kid - You Are Captain Hook - таба, видео

Печатать
Просмотров: 66
Artist: Stickup Kid
Album: The Nothing About Me (EP)
Track: You Are Captain Hook
Tuning: Standard (EADGBe)
NB – 3/4 timing

Intro
E|------------------------|------------------------|
B|-------------5----------|------------------------|
G|-------6-----------6---6|-------------6br--------|
D|-4-------------------4--|-------7----------------|
A|------------------------|-5----------------------|
E|------------------------|------------------------|

E|-------------------7--\-|-4----------------------|
B|-------------5----------|-2----------------------|
G|-------6---------6------|-2-----------------9-9-9|
D|-4----------------------|-0-----------------9-9-9|
A|------------------------|-------------------7-7-7|
E|------------------------|------------------------|

Chorus
E|------------------------|------------------------|
B|------------------------|------------------------|
G|-7---7-7---7-7---7-7-7-7|------------------------|
D|-7---7-7---7-7---7-7-7-7|-7---7-7---7-7---7-7-7-7|
A|-5---5-5---5-5---5-5-5-5|-7---7-7---7-7---7-7-7-7|
E|------------------------|-5---5-5---5-5---5-5-5-5|

E|------------------------|------------------------|
B|------------------------|------------------------|
G|-7---7-7---7-7---7-7-7-7|-------------------9-9-9|
D|-7---7-7---7-7---7-7-7-7|-4---4-4---4-2---2-9-9-9|
A|-5---5-5---5-5---5-5-5-5|-4---4-4---4-2---2-7-7-7|
E|------------------------|-2---2-2---2-0---0------|

E|------------------------|------------------------|
B|------------------------|------------------------|
G|-7---7-7---7-7---7-7-7-7|-------------------9-9-9|
D|-7---7-7---7-7---7-7-7-7|-4---4-4---4-2---2-9-9-9|
A|-5---5-5---5-5---5-5-5-5|-4---4-4---4-2---2-7-7-7|
E|------------------------|-2---2-2---2-0---0------|

E|------------------------|------------------------|
B|------------------------|------------------------|
G|-7---7-7---7-7---7-7-7-7|------------------------|
D|-7---7-7---7-7---7-7-7-7|-4----------------------|
A|-5---5-5---5-5---5-5-5-5|-4----------------------|
E|------------------------|-2----------------------|

Verse 1
E|------------------------|------------------------|
B|------------------------|------------------------|
G|------9-6----7----------|------------------------|
D|-2-4--9-6----7----------|------------------------|
A|-2-4--7-4----5----------|------------------------|
E|-0-2--------------------|------------------------|

E|------------------------|------------------------|
B|------------------------|------------------------|
G|-9----6----7-7-7-7-7-7-7|-7-7-7-7-7-7-7-7-7-7-7-7|
D|-9----6----7-7-7-7-7-7-7|-7-7-7-7-7-7-7-7-7-7-7-7|
A|-7----4----5-5-5-5-5-5-5|-5-5-5-5-5-5-5-5-5-5-5-5|
E|------------------------|------------------------|

E|------------------------|------------------------|
B|------------------------|------------------------|
G|------9-6---------------|------------------------|
D|-2-4--9-6----7----------|------------------------|
A|-2-4--7-4----7----------|------------------------|
E|-0-2---------5----------|------------------------|

E|------------------------|------------------------|
B|------------------------|------------------------|
G|------------------------|-------------------9-9-9|
D|-9-9---9-9-9---9-9-9---9|-4---4-4---4-2---2-9-9-9|
A|-9-9---9-9-9---9-9-9---9|-4---4-4---4-2---2-7-7-7|
E|-7-7---7-7-7---7-7-7---7|-2---2-2---2-0---0------|

Chorus
E|------------------------|------------------------|
B|------------------------|------------------------|
G|-7---7-7---7-7---7-7-7-7|------------------------|
D|-7---7-7---7-7---7-7-7-7|-7---7-7---7-7---7-7-7-7|
A|-5---5-5---5-5---5-5-5-5|-7---7-7---7-7---7-7-7-7|
E|------------------------|-5---5-5---5-5---5-5-5-5|

E|------------------------|------------------------|
B|------------------------|------------------------|
G|-7---7-7---7-7---7-7-7-7|-------------------9-9-9|
D|-7---7-7---7-7---7-7-7-7|-4---4-4---4-2---2-9-9-9|
A|-5---5-5---5-5---5-5-5-5|-4---4-4---4-2---2-7-7-7|
E|------------------------|-2---2-2---2-0---0------|

E|------------------------|------------------------|
B|------------------------|------------------------|
G|-7---7-7---7-7---7-7-7-7|-------------------9-9-9|
D|-7---7-7---7-7---7-7-7-7|-4---4-4---4-2---2-9-9-9|
A|-5---5-5---5-5---5-5-5-5|-4---4-4---4-2---2-7-7-7|
E|------------------------|-2---2-2---2-0---0------|

E|------------------------|------------------------|
B|------------------------|------------------------|
G|-7---7-7---7-7---7-7-7-7|------------------------|
D|-7---7-7---7-7---7-7-7-7|-4-4-4-4-4-4-2-2-2-2-2-2|
A|-5---5-5---5-5---5-5-5-5|-4-4-4-4-4-4-2-2-2-2-2-2|
E|------------------------|-2-2-2-2-2-2-0-0-0-0-0-0|

E|------------------------|
B|------------------------|
G|-7-7-7-7-7-7-7-7-7-7-7-7|
D|-7-7-7-7-7-7-7-7-7-7-7-7|
A|-5-5-5-5-5-5-5-5-5-5-5-5|
E|------------------------|

Bridge
E|------------------------|------------------------|
B|-----5-----------5------|------------------------|
G|---------6\4---------6\4|-----6------------------|
D|-4----------------------|---------7--------------|
A|-------------7----------|-5----------------------|
E|------------------------|------------------------|

E|------------------------|------------------------|
B|-----5-----------5------|-------------5----------|
G|---------6\4---------6\4|-----6-----------6------|
D|-4----------------------|---------7-----------7--|
A|-------------7----------|-5----------------------|
E|------------------------|------------------------|

E|-----7-----------4------|-----5------------------|
B|---------7\5---------5\3|---------5--------------|
G|------------------------|------------------------|
D|-4----------------------|------------------------|
A|-------------7----------|-5----------------------|
E|------------------------|------------------------|

E|------------------------|-----5------------------|
B|-----5-----------5------|---------5--------------|
G|---------6\4---------6\4|------------------------|
D|-4----------------------|------------------------|
A|-------------7----------|-5----------------------|
E|------------------------|------------------------|

Verse 2
E|------------------------|------------------------|
B|------------------------|------------------------|
G|------------------9-6---|-7-7-7-7-7-7-7-7-7-7-7-7|
D|-------------2-4--9-6---|-7-7-7-7-7-7-7-7-7-7-7-7|
A|-4-4-4-4-4-4-2-4--7-4---|-5-5-5-5-5-5-5-5-5-5-5-5|
E|-2-2-2-2-2-2-0-2--------|------------------------|
PM . . . . . .
E|------------------------|------------------------|
B|------------------------|------------------------|
G|-7-7-7-7-7-7------9-6---|-7----------------------|
D|-7-7-7-7-7-7-2-4--9-6---|-7----------------------|
A|-5-5-5-5-5-5-2-4--7-4---|-5----------------------|
E|-------------0-2--------|------------------------|

E|------------------------|------------------------|
B|------------------------|------------------------|
G|------------------9-6---|-7-7-7-7-7-7-7-7-7-7-7-7|
D|-------------2-4--9-6---|-7-7-7-7-7-7-7-7-7-7-7-7|
A|-------------2-4--7-4---|-5-5-5-5-5-5-5-5-5-5-5-5|
E|-------------0-2--------|------------------------|

E|------------------------|------------------------|
B|------------------------|------------------------|
G|-7-7-7-7-7-7------9-6---|-7-7-7-7-7-7-7-7-7-7-7-7|
D|-7-7-7-7-7-7-2-4--9-6---|-7-7-7-7-7-7-7-7-7-7-7-7|
A|-5-5-5-5-5-5-2-4--7-4---|-5-5-5-5-5-5-5-5-5-5-5-5|
E|-------------0-2--------|------------------------|


E|------------------------|------------------------|---------|
B|------------------------|------------------------|---------|
G|-7-7-7-7-7-7-9-9-9-9-9-9|------------------------|---9-9-9-|
D|-7-7-7-7-7-7-9-9-9-9-9-9|-4-4---4-4-4---4-2-2---2|-2-9-9-9-|
A|-5-5-5-5-5-5-7-7-7-7-7-7|-4-4---4-4-4---4-2-2---2|-2-7-7-7-|
E|------------------------|-2-2---2-2-2---2-0-0---0|-0-------|

Final chorus
E|------------------------|------------------------|
B|------------------------|------------------------|
G|-7-7-7-7-7-7-7-7-7-7-7-7|------------------------|
D|-7-7-7-7-7-7-7-7-7-7-7-7|-7-7-7-7-7-7-7-7-7-7-7-7|
A|-5-5-5-5-5-5-5-5-5-5-5-5|-7-7-7-7-7-7-7-7-7-7-7-7|
E|------------------------|-5-5-5-5-5-5-5-5-5-5-5-5|

E|------------------------|------------------------|
B|------------------------|-----5-----------5------|
G|-7-7-7-7-7-7-7-7-7-7-7-7|---------6\4---------6\4|
D|-7-7-7-7-7-7-7-7-7-7-7-7|-4----------------------|
A|-5-5-5-5-5-5-5-5-5-5-5-5|-------------7----------|
E|------------------------|------------------------|

E|------------------------|
B|------------------------|
G|-----6------------------|
D|---------7--------------|
A|-5----------------------|
E|------------------------|
Добавлено: 20.06.2013
Вам также может быть интересно:
Другие материалы по этой песне:
  • Аккорды и текст

Страница создана 20.06.2013
http://primanota.ru/stickup-kid/you-are-captain-hook-chords.htm
Привет, Гость.
Предлагаем пройти революционный курс по гитаре.
Подарок от PrimaNota.Ru, забирай!