PrimaNota.ru - самый крупный в мире бесплатный архив песенных текстов, аккордов, табулатур и нот


Stickup Kid - Tailwind - таба, видео

Регистрация Запомнить меня
Войти через:  Facebook Google Twitter Vk Yandex Mail.ru

Stickup Kid - Tailwind - таба, видео

Печатать
Просмотров: 57
Artist: Stickup Kid
Album: Future Fire
Track: Tailwind
Tuning: Standard (EADGBe)

Intro
e|--------------------------------|--------------------------------|
B|--------------------------------|--------------------------------|
G|--------------------------------|--------------------------------|
D|-5-5-5-5-5-5-5-5-7-7-7-7-7-7-7-7|-3-3-3-3-3-3-3-3-3-3-3-3-3-3-3-3|
A|-5-5-5-5-5-5-5-5-7-7-7-7-7-7-7-7|-3-3-3-3-3-3-3-3-3-3-3-3-3-3-3-3|
E|-3-3-3-3-3-3-3-3-5-5-5-5-5-5-5-5|-1-1-1-1-1-1-1-1-1-1-1-1-1-1-1-1|

Verse 1
e|--------------------------------|--------------------------------|
B|--------------------------------|--------------------------------|
G|--------------------------------|--------------------------------|
D|-5-5-5-5-5-5-5-5-7-7-7-7-7-7-7-7|-3-3-3-3-3-3-3-3-3-3-3-3-3-3-3-3| x6
A|-5-5-5-5-5-5-5-5-7-7-7-7-7-7-7-7|-3-3-3-3-3-3-3-3-3-3-3-3-3-3-3-3|
E|-3-3-3-3-3-3-3-3-5-5-5-5-5-5-5-5|-1-1-1-1-1-1-1-1-1-1-1-1-1-1-1-1|

e|--------------------------------|
B|--------------------------------|
G|--------------------------------|
D|-5---------------7--------------| 
A|-5---------------7--------------|
E|-3---------------5--------------|

Pre-chorus
e|--------------------------------|--------------------------------|
B|--------------------------------|--------------------------------|
G|--------------------------------|--------------------------------|
D|-2-2-2-2-2-2-2-2-333-3-3-2-2-2-2|-3-3-3-3-3-3-3-3-3-3-3-3-3-3-3-3| x2
A|-3-3-3-3-3-3-3-3-333-3-3-3-3-3-3|-3-3-3-3-3-3-3-3-3-3-3-3-3-3-3-3|
E|--------------------------------|-1-1-1-1-1-1-1-1-1-1-1-1-1-1-1-1|

Chorus
Rhythm
e|--------------------------------|--------------------------------|
B|--------------------------------|--------------------------------|
G|--------------------------------|--------------------------------|
D|-7-7-7-7-7-7-7-7-7-7-7-7-7-7-7-7|-5-5-5-5-5-5-5-5-5-5-5-5-5-5-5-5|
A|-7-7-7-7-7-7-7-7-7-7-7-7-7-7-7-7|-5-5-5-5-5-5-5-5-5-5-5-5-5-5-5-5|
E|-5-5-5-5-5-5-5-5-5-5-5-5-5-5-5-5|-3-3-3-3-3-3-3-3-3-3-3-3-3-3-3-3|

e|--------------------------------|--------------------------------|
B|--------------------------------|--------------------------------|
G|--------------------------------|--------------------------------|All
D|-3-3-3-3-3-3-3-3-3-3-3-3-3-3-3-3|-3-3-3-3-3-3-3-3-3-3-3-3-3-3-3-3| x2
A|-3-3-3-3-3-3-3-3-3-3-3-3-3-3-3-3|-3-3-3-3-3-3-3-3-3-3-3-3-3-3-3-3|
E|-1-1-1-1-1-1-1-1-1-1-1-1-1-1-1-1|-1-1-1-1-1-1-1-1-1-1-1-1-1-1-1-1|

Lead
e|--------------------------------|--------------------------------|
B|--------------------------------|--------------------------------|
G|-9-9-9-9-9-9-9-9-9-9-9-9-9-9-9-9|-7-7-7-7-7-7-7-7-7-7-7-7-7-7-7-7|
D|-x-x-x-x-x-x-x-x-x-x-x-x-x-x-x-x|-x-x-x-x-x-x-x-x-x-x-x-x-x-x-x-x| 
A|-7-7-7-7-7-7-7-7-7-7-7-7-7-7-7-7|-5-5-5-5-5-5-5-5-5-5-5-5-5-5-5-5|
E|--------------------------------|--------------------------------|

e|--------------------------------|---------------------------------|
B|--------------------------------|---------------------------------|
G|-5-5-5-5-5-5-5-5-5-5-5-5-5-5-5-5|-5-5-5-5-7-7-7-7-9-9-9-9-10101010|
D|-x-x-x-x-x-x-x-x-x-x-x-x-x-x-x-x|-x-x-x-x-x-x-x-x-x-x-x-x-x-x-x-x-| 
A|-3-3-3-3-3-3-3-3-3-3-3-3-3-3-3-3|-3-3-3-3-5-5-5-5-7-7-7-7-8-8-8-8-|
E|--------------------------------|---------------------------------|

e|--------------------------------|--------------------------------|
B|--------------------------------|--------------------------------|
G|-9-9-9-9-9-9-9-9-9-9-9-9-9-9-9-9|-7-7-7-7-7-7-7-7-101010109-9-9-9|
D|-x-x-x-x-x-x-x-x-x-x-x-x-x-x-x-x|-x-x-x-x-x-x-x-x-x-x-x-x-x-x-x-x| 
A|-7-7-7-7-7-7-7-7-7-7-7-7-7-7-7-7|-5-5-5-5-5-5-5-5-8-8-8-8-7-7-7-7|
E|--------------------------------|--------------------------------|

e|--------------------------------|---------------------------------|
B|--------------------------------|---------------------------------|
G|-5-5-5-5-5-5-5-5-5-5-5-5-5-5-5-5|-10101010101010101010101010101010|
D|-x-x-x-x-x-x-x-x-x-x-x-x-x-x-x-x|-x-x-x-x-x-x-x-x-x-x-x-x-x-x-x-x-| 
A|-3-3-3-3-3-3-3-3-3-3-3-3-3-3-3-3|-8-8-8-8-8-8-8-8-8-8-8-8-8-8-8-8-|
E|--------------------------------|---------------------------------|

Post-chorus
Rhythm
e|--------------------------------|--------------------------------|
B|--------------------------------|--------------------------------|
G|--------------------------------|--------------------------------|
D|-5-5-5-5-5-5-5-5-7-7-7-7-7-7-7-7|-3-3-3-3-3-3-3-3-3-3-3-3-3-3-3-3|
A|-5-5-5-5-5-5-5-5-7-7-7-7-7-7-7-7|-3-3-3-3-3-3-3-3-3-3-3-3-3-3-3-3|
E|-3-3-3-3-3-3-3-3-5-5-5-5-5-5-5-5|-1-1-1-1-1-1-1-1-1-1-1-1-1-1-1-1|

e|--------------------------------|--------------------------------|
B|--------------------------------|--------------------------------|
G|--------------------------------|--------------------------------|
D|-5-5-5-5-5-5-5-5-7-7-7-7-7-7-7-7|-3-3-3-3-3-3-3-3-3-3-3-3-3-3-3-3|
A|-5-5-5-5-5-5-5-5-7-7-7-7-7-7-7-7|-3-3-3-3-3-3-3-3-3-3-3-3-3-3-3-3|
E|-3-3-3-3-3-3-3-3-5-5-5-5-5-5-5-5|-1-1-1-1-1-1-1-1-1-1-1-1-1-1-1-1|

Lead
e|--------------------------------|--------------------------------|
B|--------------------------------|--------------------------------|
G|--------------------------------|--------------------------------|
D|--------------------------------|-3-3-3-3-3-3-3-3-3-3-3-3-3-3-3-3| 
A|--------------------------------|-3-3-3-3-3-3-3-3-3-3-3-3-3-3-3-3|
E|--------------------------------|-1-1-1-1-1-1-1-1-1-1-1-1-1-1-1-1|

e|--------------------------------|--------------------------------|
B|--------------------------------|--------------------------------|
G|-0-----0-------------0----------|--------------------------------|
D|---2h3-----------2h3-----2------|--------------------------------| 
A|---------------------------3----|--------------------------------|
E|--------------------------------|--------------------------------|

Verse 2
e|--------------------------------|--------------------------------|
B|--------------------------------|--------------------------------|
G|--------------------------------|--------------------------------|
D|-5-5-5-5-5-5-5-5-7-7-7-7-7-7-7-7|-3-3-3-3-3-3-3-3-3-3-3-3-3-3-3-3| x2
A|-5-5-5-5-5-5-5-5-7-7-7-7-7-7-7-7|-3-3-3-3-3-3-3-3-3-3-3-3-3-3-3-3|
E|-3-3-3-3-3-3-3-3-5-5-5-5-5-5-5-5|-1-1-1-1-1-1-1-1-1-1-1-1-1-1-1-1|

e|--------------------------------|--------------------------------|
B|--------------------------------|--------------------------------|
G|--------------------------------|--------------------------------|
D|-5---------------7--------------|-3------------------------------| 
A|-5---------------7--------------|-3------------------------------|
E|-3---------------5--------------|-1------------------------------|

e|--------------------------------|
B|--------------------------------|
G|--------------------------------|
D|-5---------------7--------------| 
A|-5---------------7--------------|
E|-3---------------5--------------|

Pre-chorus
e|--------------------------------|--------------------------------|
B|--------------------------------|--------------------------------|
G|--------------------------------|--------------------------------|
D|-2-2-2-2-2-2-2-2-333-3-3-2-2-2-2|-3------------------------------|
A|-3-3-3-3-3-3-3-3-333-3-3-3-3-3-3|-3------------------------------|
E|--------------------------------|-1------------------------------|

e|--------------------------------|--------------------------------|
B|--------------------------------|--------------------------------|
G|--------------------------------|--------------------------------|
D|-2-2-2-2-2-2-2-2-333-3-3-2-2-2-2|-3-3-3-3-3-3-3-3-3-3-3-3-3-3-3-3|
A|-3-3-3-3-3-3-3-3-333-3-3-3-3-3-3|-3-3-3-3-3-3-3-3-3-3-3-3-3-3-3-3|
E|--------------------------------|-1-1-1-1-1-1-1-1-1-1-1-1-1-1-1-1|

Chorus same as first

Bridge
e|--------------------------------|--------------------------------|
B|--------------------------------|--------------------------------|
G|--------------------------------|--------------------------------|
D|-7---------------5--------------|-3------------------------------| 
A|-7---------------5--------------|-3------------------------------|
E|-5---------------3--------------|-1------------------------------|

e|--------------------------------|--------------------------------|
B|--------------------------------|--------------------------------|
G|--------------------------------|--------------------------------|
D|--------0-----------------0-----|-------0------------2br---------| 
A|-0--3-0-----3------0--3-0-----3-|---3-------3----3-------3-------|
E|--------------------------------|3----3-------1----1-------------|

e|--------------------------------|--------------------------------|
B|--------------------------------|--------------------------------|
G|--------------------------------|--------0-----------------0-----|
D|--------2br----------2br--------|------------2-----------------2-| 
A|----3-------3----3-------3------|-0--3-0------------0--3-0-------|
E|-1----1-------3----3------------|--------------------------------|

e|--------------------------------|--------------------------------|
B|--------------------------------|--------------------------------|
G|-------0----------0h2p0---------|--------0------------0----------|
D|---------2--------------2-------|------------2------------2------| 
A|---3----------3-----------------|----3------------3--------------|
E|3----3-----1----1---------------|-1----1-------3----3------------|

e|--------------------------------|--------------------------------|
B|-13----------------13-----------|12------------------------------|
G|--------------------------------|-------------12-----------------|
D|--------------------------------|--------------------------------| 
A|--------------------------------|--------------------------------|
E|--------------------------------|--------------------------------|

e|--------------------------------|--------------------------------|
B|--------------------------------|-13----------------13-----------|
G|-12\9-9-------9\7-7-------------|--------------------------------|
D|--------------------------------|--------------------------------| 
A|--------------------------------|--------------------------------|
E|--------------------------------|--------------------------------|

e|--------------------------------|--------------------------------|
B|-13/15---------15/17-----12-----|--------------------------------|
G|--------------------------------|--------------------------------|
D|--------------------------------|-3-3-3-3-3-3-3-3-5-5-5-5-5-5-5-5| 
A|--------------------------------|-3-3-3-3-3-3-3-3-5-5-5-5-5-5-5-5|
E|--------------------------------|-1-1-1-1-1-1-1-1-3-3-3-3-3-3-3-3|
Note extended bars
e|-----------------------------------------------------------------|
B|-----------------------------------------------------------------|
G|-14--14--14--14--14--14--14--14--12--12--12--12--12--12--12--12--|
D|-x---x---x---x---x---x---x---x---x---x---x---x---x---x---x---x---| 
A|-12--12--12--12--12--12--12--12--10--10--10--10--10--10--10--10--|
E|-----------------------------------------------------------------|

e|-----------------------------------------------------------------|
B|-----------------------------------------------------------------|
G|-9---9---9---9---9---9---9---9---9---9---9---9---9---9---9---9---|
D|-x---x---x---x---x---x---x---x---x---x---x---x---x---x---x---x---| 
A|-7---7---7---7---7---7---7---7---7---7---7---7---7---7---7---7---|
E|-----------------------------------------------------------------|

e|-----------------------------------------------------------------|
B|-----------------------------------------------------------------|
G|-14--14--14--14--14--14--14--14--16--16--16--16--16--16--16--16--|
D|-x---x---x---x---x---x---x---x---x---x---x---x---x---x---x---x---| 
A|-12--12--12--12--12--12--12--12--14--14--14--14--14--14--14--14--|
E|-----------------------------------------------------------------|

e|-----------------------------------------------------------------|
B|-----------------------------------------------------------------|
G|-17--17--17--17--17--17--17--17--17--17--17--17--17--17--17--17--|
D|-x---x---x---x---x---x---x---x---x---x---x---x---x---x---x---x---| 
A|-15--15--15--15--15--15--15--15--15--15--15--15--15--15--15--15--|
E|-----------------------------------------------------------------|

Last chorus
e|--------------------------------|--------------------------------|
B|--------------------------------|--------------------------------|
G|--------------------------------|--------------------------------|
D|-7-7-7-7-7-7-7-7-5-5-5-5-5-5-5-5|-3-3-3-3-3-3-3-3-3-3-3-3-3-3-3-3| x4
A|-7-7-7-7-7-7-7-7-5-5-5-5-5-5-5-5|-3-3-3-3-3-3-3-3-3-3-3-3-3-3-3-3|
E|-5-5-5-5-5-5-5-5-3-3-3-3-3-3-3-3|-1-1-1-1-1-1-1-1-1-1-1-1-1-1-1-1|

e|--------------------------------|--------------------------------|
B|--------------------------------|--------------------------------|
G|--------------------------------|--------------------------------|
D|-7---------------5--------------|-3------------------------------| 
A|-7---------------5--------------|-3------------------------------|
E|-5---------------3--------------|-1------------------------------|
Добавлено: 30.07.2013
Другие материалы по этой песне:
  • Аккорды и текст

Страница создана 30.07.2013
http://primanota.ru/stickup-kid/tailwind-chords.htm
Привет, Гость.
Предлагаем пройти революционный курс по гитаре.
Подарок от PrimaNota.Ru, забирай!