PrimaNota.ru - самый крупный в мире бесплатный архив песенных текстов, аккордов, табулатур и нот


Stickup Kid - See Even Billy Idol Gets It - таба, видео

Регистрация Запомнить меня
Войти через:  Facebook Google Twitter Vk Yandex Mail.ru

Stickup Kid - See Even Billy Idol Gets It - таба, видео

Печатать
Просмотров: 72
Artist: Stickup Kid
Album: The Sincerest Form of Flattery
Track: See? Even Billy Idol Gets It!
Tuning: Standard (EADGBe)
NB – 3/4 timing; unless otherwise stated rhythm and lead parts are the same

Intro
E|------------------------|------------------------|
B|-5----------------------|-5/7-5------------------|
G|------------------------|------------------------|
D|------------------------|------------------------|
A|------------------------|------------------------|
E|------------------------|------------------------|

E|-------4----------------|------------------------|
B|-5-5/7---7-5/7-5-------5|------------------------|
G|-----------------4-4/6--|------------------------| 
D|------------------------|-----------7-7---6---4--|
A|------------------------|-----------7-7---6---4--|
E|------------------------|-----------5-5---4---2--|

Verse 1
E|------------------------|------------------------|
B|------------------------|------------------------|
G|------------------------|-4-4-4-4-4-4-4-4-4-4-4-4|
D|-2-2-2-2-2-2-2-2-2-2-2-2|-4-4-4-4-4-4-4-4-4-4-4-4|
A|-2-2-2-2-2-2-2-2-2-2-2-2|-2-2-2-2-2-2-2-2-2-2-2-2|
E|-0-0-0-0-0-0-0-0-0-0-0-0|------------------------|

E|------------------------|------------------------|
B|------------------------|------------------------|
G|------------------------|------------------------|
D|-6-6-6-6-6-6-6-6-4---6--|-7-7-7-7-7-7-7---6---4--| x2
A|-6-6-6-6-6-6-6-6-4---6--|-7-7-7-7-7-7-7---6---4--|
E|-4-4-4-4-4-4-4-4-2---4--|-5-5-5-5-5-5-5---4---2--|

Chorus
Rhythm
E|------------------------|------------------------|
B|------------------------|------------------------|
G|------------------------|------------------------|
D|-2-----2---7-7---6---4--|-2-----2---7-7---6---4--|
A|-2-----2---7-7---6---4--|-2-----2---7-7---6---4--|
E|-0-000-0---5-5---4---2--|-0-000-0---5-5---4---2--|
PM   ...                      ...
E|------------------------|------------------------|
B|------------------------|------------------------|
G|-4-4-4-4-4-4------------|------------------------|
D|-4-4-4-4-4-4-7-7-7-7-7-7|-7-7-7-7-7-7-6-6-6-6-6-6|
A|-2-2-2-2-2-2-7-7-7-7-7-7|-7-7-7-7-7-7-6-6-6-6-6-6|
E|-------------5-5-5-5-5-5|-5-5-5-5-5-5-4-4-4-4-4-4|

E|------------------------|------------------------|
B|------------------------|------------------------|
G|-4---4-4----------------|------------------------|
D|-4---4-4-----7---7-7----|-6---6-6-6-6-6-6-4---4--|
A|-2---2-2-----7---7-7----|-6---6-6-6-6-6-6-4---4--|
E|-------------5---5-5----|-4---4-4-4-4-4-4-2---2--|

Lead
E|------------------------|------------------------|
B|------------------------|------------------------|
G|-9-----9---1414---13--11|-9-----9---1414---13--11|
D|-x-----x---x-x----x---x-|-x-----x---x-x----x---x-|
A|-7-777-7---1212---11--9-|-7-777-7---1212---11--9-|
E|------------------------|------------------------|
     ...                      ...
E|------------------------|------------------------|
B|------------------------|------------------------|
G|161616161616141414141414|131313131313131313131313|
D|x-x-x-x-x-x-x-x-x-x-x-x-|x-x-x-x-x-x-x-x-x-x-x-x-|
A|141414141414121212121212|111111111111111111111111|
E|------------------------|------------------------|

E|------------------------|------------------------|
B|------------------------|------------------------|
G|-16--1616----14--1414---|-13--13131313131311--11-|
D|-x---x-x-----x---x-x----|-x---x-x-x-x-x-x-x---x--|
A|-14--1414----12--1212---|-11--1111111111119---9--|
E|------------------------|------------------------|

Bridge 1
E|------------------------|------------------------|
B|------------------------|------------------------|
G|------------------------|------------------------|
D|-2----------------------|-2---------6-6---4---6--| x2
A|-2----------------------|-2---------6-6---4---6--|
E|-0---0-0-0-0-0-0-0-0-0-0|-0-0-0-0-0-4-4---2---4--|
       . . . . . . . . . .    . . . .

Verse 2
E|------------------------|------------------------|
B|------------------------|------------------------|
G|------------------------|-4-4-4-4-4-4-4-4-4-4-4-4|
D|-2----------------------|-4-4-4-4-4-4-4-4-4-4-4-4|
A|-2----------------------|-2-2-2-2-2-2-2-2-2-2-2-2|
E|-0----------------------|------------------------|

E|------------------------|------------------------|
B|------------------------|------------------------|
G|------------------------|------------------------|
D|-6-6-6-6-6-6-6-6-4---6--|-7-7-7-7-7-7-7----------|
A|-6-6-6-6-6-6-6-6-4---6--|-7-7-7-7-7-7-7----------|
E|-4-4-4-4-4-4-4-4-2---4--|-5-5-5-5-5-5-5----------|

Verse 3
Rhythm
E|------------------------|------------------------|
B|------------------------|------------------------|
G|------------------------|-4-4-4-4-4-4-4-4-4-4-4-4|
D|-2-2-2-2-2-2-2-2-2-2-2-2|-4-4-4-4-4-4-4-4-4-4-4-4|
A|-2-2-2-2-2-2-2-2-2-2-2-2|-2-2-2-2-2-2-2-2-2-2-2-2|
E|-0-0-0-0-0-0-0-0-0-0-0-0|------------------------|

E|------------------------|------------------------|
B|------------------------|------------------------|
G|------------------------|------------------------|
D|-6-6-6-6-6-6-6-6-4---6--|-7-7-7-7-7-7-7-7-----6-4| 
A|-6-6-6-6-6-6-6-6-4---6--|-7-7-7-7-7-7-7-7-----6-4|
E|-4-4-4-4-4-4-4-4-2---4--|-5-5-5-5-5-5-5-5-----4-2|

E|------------------------|------------------------|
B|------------------------|------------------------|
G|------------------------|------------------------|
D|-2-----2-2-2------2-2-2-|----2-2-2-----2-7----6-4|
A|-2-----2-2-2------2-2-2-|----2-2-2-----2-7----6-4|
E|-0-----0-0-0------0-0-0-|----0-0-0-----0-5----4-2|

E|------------------------|------------------------|
B|------------------------|------------------------|
G|------------------------|------------------------|
D|-2-----2-2-2------2-2-2-|----2-2-2-----2-7----6-7|
A|-2-----2-2-2------2-2-2-|----2-2-2-----2-7----6-7|
E|-0-----0-0-0------0-0-0-|----0-0-0-----0-5----4-5|

E|------------------------|------------------------|
B|------------------------|------------------------|
G|-4---4-4-4-4------------|------------------------|
D|-4---4-4-4-4-----7-7-7-7|-----6-6-6-6-6-6-4---4--|
A|-2---2-2-2-2-----7-7-7-7|-----6-6-6-6-6-6-4---4--|
E|-----------------5-5-5-5|-----4-4-4-4-4-4-2---2--|

Lead
E|------------------------|------------------------|
B|------------------------|------------------------|
G|-131313131313131313--14-|-111111111111111111--13-|
D|-x-x-x-x-x-x-x-x-x---x--|-x-x-x-x-x-x-x-x-x---x--|
A|-111111111111111111--12-|-9-9-9-9-9-9-9-9-9---11-|
E|------------------------|------------------------|

E|------------------------|------------------------|
B|------------------------|------------------------|
G|-9-9-9-9-9-9-8-8-8-8-8-8|-9-9-9-9-9-9-9-14---1311|
D|-x-x-x-x-x-x-x-x-x-x-x-x|-x-x-x-x-x-x-x-x----x-x-|
A|-7-7-7-7-7-7-6-6-6-6-6-6|-7-7-7-7-7-7-7-12---119-|
E|------------------------|------------------------|

E|------------------------|------------------------|
B|------------------------|------------------------|
G|-9-----9-9-9------9-9-9-|----9-9-9-----9-14--1311|
D|-x-----x-x-x------x-x-x-|----x-x-x-----x-x---x-x-|
A|-7-----7-7-7------7-7-7-|----7-7-7-----7-12--119-|
E|------------------------|------------------------|

E|------------------------|------------------------|
B|------------------------|------------------------|
G|-9-----9-9-9------9-9-9-|----9-9-9-----9-14--1314|
D|-x-----x-x-x------x-x-x-|----x-x-x-----x-x---x-x-|
A|-7-----7-7-7------7-7-7-|----7-7-7-----7-12--1112|
E|------------------------|------------------------|

E|------------------------|------------------------|
B|------------------------|------------------------|
G|-16--16161616---14141414|-----13131313131311--11-|
D|-x---x-x-x-x----x-x-x-x-|-----x-x-x-x-x-x-x---x--|
A|-14--14141414---12121212|-----1111111111119---9--|
E|------------------------|------------------------|

Bridge 2
E|------------------------|------------------------|
B|------------------------|------------------------|
G|------------------------|------------------------|
D|-2----------------------|-2---------6-6---4---6--| x2
A|-2----------------------|-2---------6-6---4---6--|
E|-0---0-0-0-0-0-0-0-0-0-0|-0-0-0-0-0-4-4---2---4--|
       . . . . . . . . . .    . . . .
Outro
Rhythm
E|------------------------|------------------------|
B|------------------------|------------------------|
G|-4----------------------|------------------------|
D|-4----------------------|-7-7-7-7-7-7-6-6-6-6-6-6|
A|-2----------------------|-7-7-7-7-7-7-6-6-6-6-6-6|
E|------------------------|-5-5-5-5-5-5-4-4-4-4-4-4|

E|------------------------|------------------------|
B|------------------------|------------------------|
G|-4----------------------|-------------4-4-4-4-4-4|
D|-4----------------------|-7-7-7-7-7-7-4-4-4-4-4-4|
A|-2----------------------|-7-7-7-7-7-7-2-2-2-2-2-2|
E|------------------------|-5-5-5-5-5-5------------|

E|------------------------|------------------------|
B|------------------------|------------------------|
G|------------------------|-4-4-4-4-4-4-4-4-4-4-4-4|
D|-2-2-2-2-2-2-2-2-2-2-2-2|-4-4-4-4-4-4-4-4-4-4-4-4|
A|-2-2-2-2-2-2-2-2-2-2-2-2|-2-2-2-2-2-2-2-2-2-2-2-2|
E|-0-0-0-0-0-0-0-0-0-0-0-0|------------------------|

E|------------------------|------------------------|
B|------------------------|------------------------|
G|------------------------|------------------------|
D|-6-6-6-6-6-6-6-6-4---6--|-7-7-7-7-7-7-7---6---4--|
A|-6-6-6-6-6-6-6-6-4---6--|-7-7-7-7-7-7-7---6---4--|
E|-4-4-4-4-4-4-4-4-2---4--|-5-5-5-5-5-5-5---4---2--|

E|------------------------|------------------------|
B|------------------------|------------------------|
G|------------------------|------------------------|
D|------2-----------------|------------------------|
A|------2-----------------|------------------------|
E|------0-----------------|------------------------|

Lead
E|------------------------|------------------------|
B|------------------------|------------------------|
G|161616161616161616161616|141414141414131313131313|
D|x-x-x-x-x-x-x-x-x-x-x-x-|x-x-x-x-x-x-x-x-x-x-x-x-| x3
A|141414141414141414141414|121212121212111111111111|
E|------------------------|------------------------|

E|------------------------|------------------------|
B|------------------------|------------------------|
G|-11111111111111111111111|-9-9-9-9-9-1414--13--11-|
D|-x-x-x-x-x-x-x-x-x-x-x-x|-x-x-x-x-x-x-x---x---x--|
A|-9-9-9-9-9-9-9-9-9-9-9-9|-7-7-7-7-7-1212--11--9--|
E|------------------------|------------------------|

E|------------------------|------------------------|
B|------------------------|------------------------|
G|------9-----------------|------------------------|
D|------x-----------------|------------------------|
A|------7-----------------|------------------------|
E|------------------------|------------------------|
Добавлено: 15.08.2013
Другие материалы по этой песне:
  • Аккорды и текст

Страница создана 15.08.2013
http://primanota.ru/stickup-kid/see-even-billy-idol-gets-it-chords.htm
Привет, Гость.
Предлагаем пройти революционный курс по гитаре.
Подарок от PrimaNota.Ru, забирай!